PrimaNota.ru - самый крупный в мире бесплатный архив песенных текстов, аккордов, табулатур и нот


Johnny Reid - Lets Go Higher - таба, видео

Регистрация Запомнить меня
Войти через:  Facebook Google Twitter Vk Yandex Mail.ru

Johnny Reid - Lets Go Higher - таба, видео

Печатать
Просмотров: 104
-------------------------------------------------------------------------------
                             Lets Go Higher - Johnny Reid
-------------------------------------------------------------------------------
Tabbed by: Brandon
Email: woodheadb@hotmail.com

Tuning: Standard
Capo 4th Fret 

  You      know me
e|-3------------3------------------------------------------------------------|
B|-3------------3------------------------------------------------------------|
G|-O------------2------------------------------------------------------------|
D|-O------------X------------------------------------------------------------|
A|-2------------X------------------------------------------------------------|
E|-3------------X------------------------------------------------------------|

             Better than i know my-self
e|-3------------------------------3------------------------------------------|
B|-3------------------------------3------------------------------------------|
G|-0------------------------------O------------------------------------------|
D|-2------------------------------2------------------------------------------|
A|-2------------------------------3------------------------------------------|
E|-X------------------------------X------------------------------------------|
  
   You     see  me
e|-3------------3------------------------------------------------------------|
B|-3------------3------------------------------------------------------------|
G|-O------------2------------------------------------------------------------|
D|-O------------X------------------------------------------------------------|
A|-2------------X------------------------------------------------------------|
E|-3------------X------------------------------------------------------------|
 
           Different than anybody else
e|-3------------------------------3------------------------------------------|
B|-3------------------------------3------------------------------------------|
G|-0------------------------------O------------------------------------------|
D|-2------------------------------2------------------------------------------|
A|-2------------------------------3------------------------------------------|
E|-X------------------------------X------------------------------------------|

   Just when i feel ive reached the moon   you look at me and say
e|-3-------------------------------------------3-----------------------------|
B|-3-------------------------------------------3-----------------------------|
G|-O-------------------------------------------2-----------------------------|
D|-O-------------------------------------------x-----------------------------|
A|-2-------------------------------------------x-----------------------------|
E|-3-------------------------------------------x-----------------------------|
 
  Lets go higher lets go  higher       
e|--------3---------------3--------------------------------------------------|
B|--------3---------------3--------------------------------------------------|
G|--------0---------------O--------------------------------------------------|
D|--------2---------------2--------------------------------------------------|
A|--------2---------------3--------------------------------------------------|
E|--------x---------------x--------------------------------------------------|

   You say baby don't look down,              look at what we've found
e|-3-------------------------------------------3-----------------------------|
B|-3-------------------------------------------3-----------------------------|
G|-O-------------------------------------------2-----------------------------|
D|-O-------------------------------------------x-----------------------------|
A|-2-------------------------------------------x-----------------------------|
E|-3-------------------------------------------x-----------------------------|
 
  Lets go higher lets go  higher       
e|--------3---------------3--------------------------------------------------|
B|--------3---------------3--------------------------------------------------|
G|--------0---------------O--------------------------------------------------|
D|--------2---------------2--------------------------------------------------|
A|--------2---------------3--------------------------------------------------|
E|--------x---------------x--------------------------------------------------|

Continue for the rest of the song…


You show me 
There is always something more 
You take me 
Where I've never been before 
Just when I feel I've reached the moon 
You look at me and say, "Let's go higher, let's go higher" 
You say, "Baby, don't look down. 
Look at what we've found and let's go higher, 
Let's go higher" 

You make me believe 
Love is all we'll ever need 
Just when I feel I've reached the moon 
You look at me and say, "Let's go higher, let's go higher" 
You say, "Baby, don't look down. 
Look at what we've found and let's go higher, 
Let's go higher" 

Just when I feel I've reached the moon 
You look at me and say, "Let's go higher, let's go higher" 
You say, "Baby, don't look down. 
Look at what we've found and let's go higher, 
Let's go higher"




Enjoy! 

************************************

| /   slide up
| \   slide down
| h   hammer-on
| p   pull-off
| ~   vibrato
| +   harmonic
| x   Mute note
| b   Bend
| pb  Pre-bend
| br  Bend release
| pbr Pre-bend release
| brb Bend release bend

************************************
Добавлено: 03.03.2012
Другие материалы по этой песне:
  • Аккорды и текст

Страница создана 03.03.2012
http://primanota.ru/johnny-reid/lets-go-higher-chords.htm
Привет, Гость.
Предлагаем пройти революционный курс по гитаре.
Подарок от PrimaNota.Ru, забирай!