PrimaNota.ru - самый крупный в мире бесплатный архив песенных текстов, аккордов, табулатур и нот


Johnny Q Public - Scream - текст песни, таба, видео

Регистрация Запомнить меня
Войти через:  Facebook Google Twitter Vk Yandex Mail.ru

Johnny Q Public - Scream - текст песни, таба, видео

Печатать
Просмотров: 140
		   Song: Scream
Artist: Johnny Q. Public
Written by: Dan Fritz, Oran Thornton, Shawn Turner
Tabbed by Bryan (baxe@misi.net)

I am pretty sure this is what it is..this is a cool song.
But, I am far, far, FAR from being an expert. 

Tuning: DADGBE (drop-D tuning)

[Intro]
-massive feedback-
e|------------------|
B|------------------|
G|------------------| 
D|-----------6b--6--|
A|------------------|
D|--6--0--6---------|


[Riff1]
e|-----------------------------|
B|-----------------------------|
G|-----------------------------|
D|--2-2-2-2--10-10--9-9-9-9-9--|
A|--2-2-2-2--10-10--9-9-9-9-9--|
D|--2-2-2-2--10-10--9-9-9-9-9--|

[Riff2]
e|----------------------------------------------|
B|----------------------------------------------|
G|----------------------------------------------|
D|--0-0-0-0-0--2-2-2-2-2--8-8-8-8-8--3-3-3-3-3--|
A|--0-0-0-0-0--2-2-2-2-2--8-8-8-8-8--3-3-3-3-3--|
D|--0-0-0-0-0--2-2-2-2-2--8-8-8-8-8--3-3-3-3-3--|

[Intro] 10x

-Verse1-

[Intro] 9x
Sounds of cymbals, harp and lyre
Sounds of timbral, sing and dance

-Bridge-

[riff1]
Let everything with breath praise
[riff1]
and I wont put my fingers on it

-Chorus-

[riff2]
David played his blessed harp and dance violently
[riff2]
Ill blessedly scream
[riff2]
I dont know how to dance, I dont know how to sing
[riff2]
but Ill scream, blessedly scream

[Intro] 5x

-Verse2-

[Intro] 9x
Sounds of giants fill the land
If I dont play my part, trees and rocks can

-Bridge-
-Chorus-

[Intro] 9x

-Bridge- 2x
-Chorus-

D|------------|
A|------------| 16x
D|--2--10--9--|

[Riff2] 4x

-Chrous-

-Screams of Praise-

e|-----|
B|-----|
G|-----|
D|--2--| x(alot)
A|--2--|
D|--2--|

[Intro] 4x     
Добавлено: 18.07.2013
Другие материалы по этой песне:
  • Аккорды и текст

Страница создана 11.03.2012
http://primanota.ru/johnny-q-public/scream-chords.htm
Привет, Гость.
Предлагаем пройти революционный курс по гитаре.
Подарок от PrimaNota.Ru, забирай!