PrimaNota.ru - самый крупный в мире бесплатный архив песенных текстов, аккордов, табулатур и нот


Johnny Q Public - Body Be - текст песни, таба, видео

Регистрация Запомнить меня
Войти через:  Facebook Google Twitter Vk Yandex Mail.ru

Johnny Q Public - Body Be - текст песни, таба, видео

Печатать
Просмотров: 136
		   (Words: Dan Fritz/Lyrics: Dan Fritz and Oran Thorton)
(C)1995 Super Fly Camel Clutch Music/Gotee Music/BMI
Tabbed By: Tim Rommen, Clint Miller (Clint@sciboard.spdlan.louisville.edu)

Riff 1 (Lead Guitar)
E |--3--2--0-----3--2--0----3--2--0-----3--2--0----|
C |--3--------3--3-----3----3--------3--3-----1----|
G |--2-----------2-----0----2-----------2-----0----|
D |--0-----------0-----2----0-----------0-----2----|
A |--------------------3----------------------3----|
E |------------------------------------------------|

Riff 2 (Lead and Rythmn Guitars) (Play twice each time)
E |-----------------------------|
C |--3-----3-----3--3-----3-----|
G |--2-----2-----2--2-----2-----|
D |-----0-----0--------0-----0--|
A |-----------------------------|
E |-----------------------------|
The rest of the song is just chords, which are listed below with the lyrics.

(Riff 1) (X2) (Rythmn guitar see Chorus)

(Verse 1)(Riff 2) (X2)
My eyes can't help my ears
My ears can't see(Channel)
D          F   E
Why do I try this way
          D             F         E
There's probably something wrong with me
       D   F    E    D
If I can't see that something's wrong
     D   F   E   D    C
When all my pieces become pieces
 D             F   E   C
And not all one

(Chorus)(Riff 1) (X4) (Rythmn guitar plays the chords)

       D                C
Then where, where would my body be
Body be
       D            C
Where, where could my body be
Body be

(Verse 2)(Riff 2) (X2)
My hands can't help my eyes
My eyes can't feel(Channel)
(Same as above)

(Chorus)(Same as above)

(Bridge)(Lead and Rythmn both play chords)
D         F    C        D
You in the sky, you in the sky
D       F    C   D
You make me high, alive
D         F    C        D
You in the sky, you in the sky
D       F    C   D
You make me cry, alive
D         F    C        D
You in the sky, you in the sky
D       F    C   D
You make me high, alive
D         F    C        D
You in the sky, you in the sky
D       F    C   D
You make me cry, alive

(Adlib interlude)(Chorus X3)

Solo (added by GRAVE2SKY@aol.com):
A---9---9---9---9---9---9---9--7--7--7--7--7--7--7--11--11--11--11--11--11--11--9---9
E--11--11--11--11--11--11--11--9--9--9--9--9--9--9--13--13--13--13--13--13--13--11-11
Repeat 6 times

Solo

On string B play these frets:
B-14--12--16--14--12--13--14

Another version of the solo added by Matt Johnson (misterbj@geocities.com):
E----9-9-9-9-9-7-7-7-7-11-11-11-11-11-9-9-7-8-9-9-9-9-9-9-7-8-9-9-9-9-9-9

Notes:At the end of the song, both guitars, bass, and drums start to play both
the bridge and the chorus. It should make some odd noise before falling
apart, so adlib with it and be creative.     
Добавлено: 23.08.2013
Другие материалы по этой песне:
  • Аккорды и текст

Страница создана 23.04.2012
http://primanota.ru/johnny-q-public/body-be-chords.htm
Привет, Гость.
Предлагаем пройти революционный курс по гитаре.
Подарок от PrimaNota.Ru, забирай!