PrimaNota.ru - самый крупный в мире бесплатный архив песенных текстов, аккордов, табулатур и нот


Johnny Paycheck - Im The Only Hell My Mama Ever Raised - бас-таба, видео

Регистрация Запомнить меня
Войти через:  Facebook Google Twitter Vk Yandex Mail.ru

Johnny Paycheck - Im The Only Hell My Mama Ever Raised - бас-таба, видео

Печатать
Просмотров: 128
Tabbed by: 6METAL6BASSIST6
E-mail: petergriffinav@gmail.com

Tuning: EADG

0:03

G|----4-------------2-------------|
D|------------3-4-----3-4---------|
A|2-----------------------2-------|
E|--------------------------------|

G|----------------------------------------------------------------|
D|----------------------------------------------------------------|
A|2---------------2---------------2---------------2-------0---1---|
E|--------2---------------2---------------2-----------2-----------|

G|----------------------------------------------------------------|
D|----------------------------------------------------------------|
A|2---------------2---------------2---------------2---------------|
E|--------2---------------2---------------2---------------2-------|

G|----------------------------------------------------------------|
D|------------------------------------------------------------1---|
A|2---------------2---------------2---------------2-------4-------|
E|--------2---------------2---------------2-----------------------|

G|----------------------------------------------------------------|
D|2---------------2---------------2---------------2-------2-------|
A|--------2---------------2---------------2-----------------------|
E|----------------------------------------------------------------|

0:22

G|----------------------------------------------------------------|
D|----------------------------------------------------------------|
A|2---------------2---------------2---------------2---------------|
E|--------2---------------2---------------2---------------2-------|

G|----------------------------------------------------------------|
D|------------------------------------------------------------1---|
A|2---------------2---------------2---------------2-------4-------|
E|--------2---------------2---------------2-----------------------|

G|----------------------------------------------------------------|
D|2---------------2-------2---3---4---------------4---------------|
A|--------2-------------------------------4---------------4-------|
E|----------------------------------------------------------------|

G|----------------------------------------------------------------|
D|4---------------4-------4---------------------------------------|
A|--------4-----------------------2---------------2---------------|
E|----------------------------------------2---------------2-------|

G|--------------------------------|
D|--------------------------------|
A|2---------------2-----------1---|
E|--------2-----------2---4-------|

0:41

G|----------------------------------------------------------------|
D|----------------------------------------------------------------|
A|2---------------2---------------2---------------2---------------|
E|--------2---------------2---------------2---------------2-------|

G|----------------------------------------------------------------|
D|------------------------------------------------------------1---|
A|2---------------2---------------2---------------2-------4-------|
E|--------2---------------2---------------2-----------------------|

G|----------------------------------------------------------------|
D|2---------------2---------------2---------------2---------------|
A|--------2---------------2---------------2---------------2-------|
E|----------------------------------------------------------------|

G|----------------------------------------------------------------|
D|2---------------2---------------2---------------2-------1-------|
A|--------2---------------2---------------2-------------------4---|
E|----------------------------------------------------------------|

0:59

G|----------------------------------------------------------------|
D|------------------------------------------------------------1---|
A|2---------------2---------------2---------------2-------4-------|
E|--------2---------------2---------------2-----------------------|

G|----------------------------------------------------------------|
D|2---------------2-------2---3---4---------------4---------------|
A|--------2-------------------------------4---------------4-------|
E|----------------------------------------------------------------|

G|----------------------------------------------------------------|
D|4---------------4-------4---------------------------------------|
A|--------4-----------------------2---------------2---------------|
E|----------------------------------------2---------------2-------|

G|--------------------------------|
D|--------------------------------|
A|2---------------2-----------1---|
E|--------2-----------2---4-------|

1:14

G|----------------------------------------------------------------|
D|--------4-------------------------------4-------------------1---|
A|2---------------2---------------2---------------2-------4-------|
E|------------------------2---------------------------------------|

G|----------------------------------------------------------------|
D|2---------------2-------2---3---4-------------------------------|
A|--------2-------------------------------4---------------4-------|
E|------------------------------------------------2---------------|

G|----------------------------------------------------------------|
D|4-----------------------4---------------4-----------------------|
A|--------4-----------------------2---------------2-----------1---|
E|----------------2-----------------------------------2---4-------|

G|----------------------------------------------------------------|
D|--------4-------------------------------4-------------------1---|
A|2---------------2---------------2---------------2-------4-------|
E|------------------------2---------------------------------------|

G|----------------------------------------------------------------|
D|2---------------2-------2---3---4-------------------------------|
A|--------2-------------------------------4---------------4-------|
E|------------------------------------------------2---------------|

G|----------------------------------------------------------------|
D|4-----------------------4---------------4-----------------------|
A|--------4-----------------------2---------------2-------2-------|
E|----------------2-----------------------------------------------|

1:42

G|----------------------------------------------------------------|
D|--------5-------------------------------5-----------------------|
A|3---------------3---------------3---------------3-----------2---|
E|------------------------3---------------------------3---5-------|

G|----------------------------------------------------------------|
D|----------------------------------------------------------------|
A|3---------------3---------------3---------------3---------------|
E|--------3---------------3---------------3---------------3-------|

G|----------------------------------------------------------------|
D|------------------------------------------------------------2---|
A|3---------------3---------------3---------------3-------5-------|
E|--------3---------------3---------------3-----------------------|

G|----------------------------------------------------------------|
D|3---------------3---------------3---------------3---------------|
A|--------3---------------3---------------3---------------3-------|
E|----------------------------------------------------------------|

G|----------------------------------------------------------------|
D|3---------------3---------------3---------------3-------2-------|
A|--------3---------------3---------------3-------------------5---|
E|----------------------------------------------------------------|

2:04

G|----------------------------------------------------------------|
D|------------------------------------------------------------2---|
A|3---------------3---------------3---------------3-------5-------|
E|--------3---------------3---------------3-----------------------|

G|----------------------------------------------------------------|
D|3---------------3-------3---4---5---------------5---------------|
A|--------3-------------------------------5---------------5-------|
E|----------------------------------------------------------------|

G|----------------------------------------------------------------|
D|5---------------5-------5---------------------------------------|
A|--------5-----------------------3---------------3---------------|
E|----------------------------------------3---------------3-------|

G|--------------------------------|
D|--------------------------------|
A|3---------------3-----------2---|
E|--------3-----------3---5-------|

2:19

G|----------------------------------------------------------------|
D|--------5-------------------------------5-------------------2---|
A|3---------------3---------------3---------------3-------5-------|
E|------------------------3---------------------------------------|

G|----------------------------------------------------------------|
D|3---------------3-------3---4---5-------------------------------|
A|--------3-------------------------------5---------------5-------|
E|------------------------------------------------3---------------|

G|----------------------------------------------------------------|
D|5-----------------------5---------------5-----------------------|
A|--------5-----------------------3---------------3-----------2---|
E|----------------3-----------------------------------3---5-------|

G|----------------------------------------------------------------|
D|--------5-------------------------------5-------------------2---|
A|3---------------3---------------3---------------3---3---5-------|
E|------------------------3---------------------------------------|

G|----------------------------------------------------------------|
D|3---------------3-------3---4---5-------------------------------|
A|--------3-------------------------------5---------------5-------|
E|------------------------------------------------3---------------|

G|--------------------------------|
D|5-----------------------5-------|
A|--------5-----------------------|
E|----------------3---------------|

2:42

G|------------------3-----------------6-------------4-------------|
D|------------4-5-----4-5---------------------5-6-----5-6---------|
A|3-----------------------3-------4-----------------------4-------|
E|------------------------------------------------------------4-/-|

G|----------------------------------------------------------------|
D|--------6-------------------------------6-------------------3---|
A|4---------------4---------------4---------------4-------6-------|
E|------------------------4---------------------------------------|

G|----------------------------------------------------------------|
D|4---------------4-------4---5---6-------------------------------|
A|--------4-------------------------------6---------------6-------|
E|------------------------------------------------4---------------|

G|----------------------------------------------------------------|
D|6-----------------------6---------------6-----------------------|
A|--------6-----------------------4---------------4---------------|
E|----------------4---------------------------------------4-------|

G|----------------------------------------------------------------|
D|--------6-------------------------------------------------------|
A|4-------------4-------------------------------------------------|
E|----------------------------------------------------------------|
Добавлено: 05.08.2015
Другие материалы по этой песне:
  • Аккорды и текст

Страница создана 05.08.2015
http://primanota.ru/johnny-paycheck/im-only-hell-my-mama-ever-raised-chords.htm
Привет, Гость.
Предлагаем пройти революционный курс по гитаре.
Подарок от PrimaNota.Ru, забирай!