PrimaNota.ru - самый крупный в мире бесплатный архив песенных текстов, аккордов, табулатур и нот


Johnny Marr - The Right Thing Right - таба, видео

Регистрация Запомнить меня
Войти через:  Facebook Google Twitter Vk Yandex Mail.ru

Johnny Marr - The Right Thing Right - таба, видео

Печатать
Просмотров: 114
From his new album The Messenger


Chords used: B minor, B, A Major, E Major and G Major

INTRO
      Bm.  B.      A.      B
 |---------------------------------------------------------------------------|
 |----7-----7------5------7--------------------------------------------------|
 |----7-----8------6------8--------------------------------------------------|
 |----9-----9------7------9--------------------------------------------------|
 |------------------------------------------------------------------ --------|
 |---------------------------------------------------------------------------|


THE SLIDE

E |--------------------------------------------------------------------------|
B |---2/7--------------------------------------------------------------------|
G |--------------------------------------------------------------------------|

THE CHORDS DURING THE SLIDE AND MOST OF THE SONG

          G                              E.                     A.                            B
 |-----------------------------------0--0--0------------------------------------|
 |------3-3-3-3-3--3-3----------0--0--0----------5-5-5-5-5-5-5---------7-7-7-7--|
 |------4-4-4-4-4--4-4----------1--1--1----------6-6-6-6-6-6-6---------8-8-8-8--|
 |------5-5-5-5-5--5-5----------2--2--2----------7-7-7-7-7-7-7---------9-9-9-9--|
 |-----------------------------------2--2--2------------------------------------|
 |-----------------------------------0--0--0------------------------------------|


'My heads in the south now...'

 |----------------------------------|
 |----------------------------------|
 |----------------------------------|       x8
 |----------------------------------|
 |--2-2-2-----0-2-------------------|
 |-----------2----------------------|



          G                              E.                     A.                            B
 |-----------------------------------0--0--0------------------------------------|
 |------3-3-3-3-3--3-3----------0--0--0----------5-5-5-5-5-5-5---------7-7-7-7--|
 |------4-4-4-4-4--4-4----------1--1--1----------6-6-6-6-6-6-6---------8-8-8-8--|
 |------5-5-5-5-5--5-5----------2--2--2----------7-7-7-7-7-7-7---------9-9-9-9--|
 |-----------------------------------2--2--2------------------------------------|
 |-----------------------------------0--0--0------------------------------------|


 |----------------------------------|
 |----------------------------------|
 |----------------------------------|       x4
 |----------------------------------|
 |--2-2-2-----0-2-------------------|
 |-----------2----------------------|

         G                              E.                     A.                            B
 |-----------------------------------0--0--0------------------------------------|
 |------3-3-3-3-3--3-3----------0--0--0----------5-5-5-5-5-5-5---------7-7-7-7--|
 |------4-4-4-4-4--4-4----------1--1--1----------6-6-6-6-6-6-6---------8-8-8-8--|
 |------5-5-5-5-5--5-5----------2--2--2----------7-7-7-7-7-7-7---------9-9-9-9--|
 |-----------------------------------2--2--2------------------------------------|
 |-----------------------------------0--0--0------------------------------------|

REPEAT INTRO AGAIN

      Bm.  B.      A.      B
 |---------------------------------------------------------------------------|
 |----7-----7------5------7--------------------------------------------------|
 |----7-----8------6------8--------------------------------------------------|
 |----9-----9------7------9--------------------------------------------------|
 |------------------------------------------------------------------ --------|
 |---------------------------------------------------------------------------|

GUITAR BREAK  (this isn't quite right but piss about with it and you'll get there!)


|--------------------------------------------------------------------------------------------------|
|--------------------------------------------------------------------------------------------------|
|---------5--7---4--4--4--4----4----4-4--6--6--4--6---6-4-6---6--4---6------4--2-------------------|
|----/7-------------------------6----6----------------------------------------------------------4--|
|--------------------------------------------------------------------------------------------------|
|--------------------------------------------------------------------------------------------------|


CHORDS AGAIN

         G                              E.                     A.                            B
 |-----------------------------------0--0--0------------------------------------|
 |------3-3-3-3-3--3-3----------0--0--0----------5-5-5-5-5-5-5---------7-7-7-7--|
 |------4-4-4-4-4--4-4----------1--1--1----------6-6-6-6-6-6-6---------8-8-8-8--|
 |------5-5-5-5-5--5-5----------2--2--2----------7-7-7-7-7-7-7---------9-9-9-9--|
 |-----------------------------------2--2--2------------------------------------|
 |-----------------------------------0--0--0------------------------------------|



 |----------------------------------|
 |----------------------------------|
 |----------------------------------|       x4
 |----------------------------------|
 |--2-2-2-----0-2-------------------|
 |-----------2----------------------|



THE CHORDS AGAIN

CHORDS AGAIN

         G                              E.                     A.                            B
 |-----------------------------------0--0--0------------------------------------|
 |------3-3-3-3-3--3-3----------0--0--0----------5-5-5-5-5-5-5---------7-7-7-7--|
 |------4-4-4-4-4--4-4----------1--1--1----------6-6-6-6-6-6-6---------8-8-8-8--|
 |------5-5-5-5-5--5-5----------2--2--2----------7-7-7-7-7-7-7---------9-9-9-9--|
 |-----------------------------------2--2--2------------------------------------|
 |-----------------------------------0--0--0------------------------------------|


REPEAT INTRO


      Bm.  B.      A.      B
 |---------------------------------------------------------------------------|
 |----7-----7------5------7--------------------------------------------------|
 |----7-----8------6------8--------------------------------------------------|
 |----9-----9------7------9--------------------------------------------------|
 |---------------------------------------------------------------------------|
 |---------------------------------------------------------------------------|


OUTRO


         G                              E.                     A.                            B
 |-----------------------------------0--0--0------------------------------------|
 |------3-3-3-3-3--3-3----------0--0--0----------5-5-5-5-5-5-5---------7-7-7-7--|
 |------4-4-4-4-4--4-4----------1--1--1----------6-6-6-6-6-6-6---------8-8-8-8--|
 |------5-5-5-5-5--5-5----------2--2--2----------7-7-7-7-7-7-7---------9-9-9-9--|
 |-----------------------------------2--2--2------------------------------------|
 |-----------------------------------0--0--0------------------------------------|


         G                              E.                                B
 |-----------------------------------0--0--0----------------------------------------|
 |------3-3-3-3-3--3-3----------0--0--0-------------------7-7-7-7--7-7-7-7-7-7-7-7--|
 |------4-4-4-4-4--4-4----------1--1--1-------------------8-8-8-8--8 8-8-8-8-8-8-8--|
 |------5-5-5-5-5--5-5----------2--2--2-------------------9-9-9-9--9-9-9-9-9-9-9-9--|
 |-----------------------------------2--2--2----------------------------------------|
 |-----------------------------------0--0--0----------------------------------------|
Добавлено: 21.06.2013
Другие материалы по этой песне:
  • Аккорды и текст

Страница создана 21.06.2013
http://primanota.ru/johnny-marr/the-right-thing-right-chords.htm
Привет, Гость.
Предлагаем пройти революционный курс по гитаре.
Подарок от PrimaNota.Ru, забирай!