PrimaNota.ru - самый крупный в мире бесплатный архив песенных текстов, аккордов, табулатур и нот


Johnny Marr - Psychic Beginner - таба, видео

Регистрация Запомнить меня
Войти через:  Facebook Google Twitter Vk Yandex Mail.ru

Johnny Marr - Psychic Beginner - таба, видео

Печатать
Просмотров: 139
From the 2013 album The Messenger
-----5-5-5-5-5-5-5-5------------------------------------------|
-----6-6-6-6-6-6-6-6------------------------------------------|
-----7-7-7-7-7-7-7-7---------------10-10-10-------------------|
-----7-7-7-7-7-7-7-7---------------10-10-10-------------------|
-----5-5-5-5-5-5-5-5----------------8-- 8--8------------------|
--------------------------------------------------------------|

Melody
--------------------------------------------------------------------------|
--10--------------------------10------------------------------------------|
---------7----9----9^---------------7----9---6------9^----9-------7-------|
-----------------------------------------------------------------------–--|
--------------------------------------------------------------------------|
--------------------------------------------------------------------------|
Добавлено: 23.07.2013
Другие материалы по этой песне:
  • Аккорды и текст

Страница создана 23.07.2013
http://primanota.ru/johnny-marr/psychic-beginner-chords.htm
Привет, Гость.
Предлагаем пройти революционный курс по гитаре.
Подарок от PrimaNota.Ru, забирай!