PrimaNota.ru - самый крупный в мире бесплатный архив песенных текстов, аккордов, табулатур и нот


Johnny Marr - Getting Away With It - таба, видео

Регистрация Запомнить меня
Войти через:  Facebook Google Twitter Vk Yandex Mail.ru

Johnny Marr - Getting Away With It - таба, видео

Печатать
Просмотров: 161
Авторы музыки: Bernard Sumner, Neil Tennant, Johnny Marr

Johnny Marr - Getting Away With It
https://www.youtube.com/watch?v=u9zU6WkBpIM

By no means perfect, but close enough...corrections welcome!

Capo 2nd fret

Intro Riff:

This is played by Johnny for the intro and by Doviak throughout the verses...

e--------------5-5-5-4-2-2-2---2-2-2-9-9------|
B--2-2-2-3-3---3-3-3-3-3-4-4---4-4-4-7-7------|
G--2-2-2-4-4---2-2-2-2-2-4-4---4-4-4-8-8------|   X 4
D--2-2-2-5-5---4-4-4-4-4-4-4---4-4-4-9-9------|
A--------5-5---2-2-2-2-2----------------------|
E---------------------------------------------|

F#m
I've been walking in the rain
            B
Just to get wet on purpose
F#m
I've been forcing myself
                      B
Not to forget just to feel worse
F#m                            B
I've been getting away with it all my life
F#m                            B
I've been getting away with it all my life

Intro Riff  x 2
F#m                                  B
I hate that mirror, it makes me feel so worthless
F#m                                  B
I'm an original sinner but when I'm with you I couldn't care less
F#m                                B
I've been getting away with it all my life
F#m                                B
I've been getting away with it all my life

D                    E
However I look, it's clear to see
F#m                 B
I love you more than you love me
D                    E
However I look, it's clear to see
F#m
I love you more than you love me (B--5h7-7-7--7-5h7s9-7)
F#m
I love you more than you love me
D                    E
However I look, it's clear to see

F#m
I thought I gave up falling in love
B
A long, long time ago
          F#m
I guess I like it but I can't tell you
    B
You shouldn't really know
F#m                    B
And it's been true all my life
F#m                     B
Yes, it's been true all my life

(solo)
e-----------------4-4-4-6-6/8---------------------------------|
B-----4-4--4--4h6-------------6-6~~~-4-4h6-6~~~---------------|
G--3/5---5--5-------------------------------------------------|
D-------------------------------------------------------------|
A-------------------------------------------------------------|
E-------------------------------------------------------------|


im not to sure how to link these parts...going from one to the other sounds a bit odd when i play it...
but here goes..

e-----------0-----0-------0-----0---------------------------------------------|
B-------------5-----6-------7-----7-----------5h7-7-7--7-5h7s9-7--------------|
G-------3/6-----6-----6s8-----8-----8--1b-------------------------------------|
D-----------------------------------------------------------------------------|
A-----------------------------------------------------------------------------|
E-----------------------------------------------------------------------------|

e-----------8-----6--------4---4-3---|
B----3/(9)----9-----8/6-----6-----4--|
G------------------------------------|
D------------------------------------|
A------------------------------------|
E------------------------------------|


e-----------8-----6--------4---4-3-----------------3-6-8-11-13---------------|
B----3/(9)----9-----8/6-----6-----4--------------3---------------------------|
G-------------------------------------5-3-3h5-5--4---------------------------|
D------------------------------------------------5---------------------------|
A----------------------------------------------------------------------------|
E----------------------------------------------------------------------------|


e--------------------------9----|
B-------9h10-10 10----9h10--10--|
G----11------------11-----------|       X 10 i think!
D-------------------------------|
A-------------------------------|
E-------------------------------|

e----------2-4-5-4-2----------------------------|
B------2-2-----------2----0-----0------0----0---|
G----2----------------------2-----4-----2-----2-|      X 2
D-----------------------4-----4------4----4-----|
A-----------------------------------------------|
E-----------------------------------------------|

e-------------------------------------------------------------------|
B---2-2-2-2-3-------------0-0---------0-0---------------------------|
G-------------4-4-4-----1-----2-2-1-------2-1-----------------------|  X 10
D---------------------2-------------4-------------------------------|
A-------------------2-----------------------------------------------|
E-------------------------------------------------------------------|

 Finally...
there is more after this but i cant quite get my head around it...
e-----------------------------------------------------------------------------|
B------9h10----9h10-12-10-----------------------------------------------------|
G---11------11----------------------------------------------------------------|
D-----------------------------------------------------------------------------|
A-----------------------------------------------------------------------------|
E-----------------------------------------------------------------------------|

D                    E
However I look, it's clear to see
F#m                           B
I love you more than you love me
D                    E
However I look, it's clear to see
F#m                      B
I love you more than you love_____
F#m                      B
I love you more than you love me
D                    E
However I look, it's clear to see

Outro: D E F#m B
       F#m
Добавлено: 20.05.2015
Другие материалы по этой песне:
  • Аккорды и текст

Страница создана 20.05.2015
http://primanota.ru/johnny-marr/getting-away-with-it-chords.htm
Привет, Гость.
Предлагаем пройти революционный курс по гитаре.
Подарок от PrimaNota.Ru, забирай!