PrimaNota.ru - самый крупный в мире бесплатный архив песенных текстов, аккордов, табулатур и нот


Johnny Lang - Still Rainin - текст песни, бас-таба, видео

Регистрация Запомнить меня
Войти через:  Facebook Google Twitter Vk Yandex Mail.ru

Johnny Lang - Still Rainin - текст песни, бас-таба, видео

Печатать
Просмотров: 167
Уроки эстрадного вокала в Санкт-Петербурге
(keyboard intro)
(0:00-0:09)

Bass comes in with slide and intro
(0:10)
G---------------------------------------------------------------------------|
D---------------------------------------------------------------------------|
A---------------------------------------------------------------------------|
E--13/////\\\\\-------------------------------------------------------------|

Straight quarter notes *on each beat*
(0:10-0:12)
G---------------------------------------------------------------------------|
D---------------------------------------------------------------------------|
A---------------------------------------------------------------------------|
E--1---1---1---1---1---1---1---1--------------------------------------------|
(im not sure how many there actually are so dont count)


optional hard to hear and play bass fill
(0:13)
G---------------------------------------------------------------------------|
D------------------4/5\\\\\-------------------------------------------------|
A------------6--8-----------------------------------------------------------|
E------6--8-----------------------------------------------------------------|

Main riff
follows guitar's chord progression
(0:19-0:38)
G----------------------------------------------------------------------------|
D----------------------------------------------------------------------------|
A----------------------------------------------------------------------------|
E--1---------4----------6-----------1----------4--------6----4//-------13----|

Chorus
(0:39-1:00)
on each beat hit note
G----------------------------------------------------------------------------|
D----------------------------------------------------------------------------|
A----------------------------------------------------------------------------|
E--1-1-1-1-1-1-1-1-1-1-1-1---------------------------------------------------|

Main riff
follows guitar's chord progression
(1:00-1:20)
G----------------------------------------------------------------------------|
D----------------------------------------------------------------------------|
A----------------------------------------------------------------------------|
E--1---------4----------6-----------1----------4--------6----4//-------13----|

Chorus
(1:21-1:41)
on each beat hit note
G----------------------------------------------------------------------------|
D----------------------------------------------------------------------------|
A----------------------------------------------------------------------------|
E--1-1-1-1-1-1-1-1-1-1-1-1---------------------------------------------------|

Main riff
follows guitar's chord progression
(1:42-2:00)
G----------------------------------------------------------------------------|
D----------------------------------------------------------------------------|
A----------------------------------------------------------------------------|
E--1---------4----------6-----------1----------4--------6----4//-------13----|

Bridge
(2:00-2:20)
G----------------------------------------------------------------------------|
D----------------------------------------------------------------------------|
A----------------------------------------------------------------------------|
E--13-13-13-13-13-13-13-13-13////////////1-1-1-1-1-1-1-1-1-1-1-1-1-----------|

Main riff (guitar solo)
(2:21-2:40)
G----------------------------------------------------------------------------|
D----------------------------------------------------------------------------|
A----------------------------------------------------------------------------|
E--1---------4----------6-----------1----------4--------6----4//-------13----|


Break

Comes back in
Main riff
(3:00-3:20)
G----------------------------------------------------------------------------|
D----------------------------------------------------------------------------|
A----------------------------------------------------------------------------|
E--1---------4----------6-----------1----------4--------6----4//-------13----|

Chorus
(3:21-3:41)
on each beat hit note
G----------------------------------------------------------------------------|
D----------------------------------------------------------------------------|
A----------------------------------------------------------------------------|
E--1-1-1-1-1-1-1-1-1-1-1-1---------------------------------------------------|


Main riff
(3:42-3:END)
G----------------------------------------------------------------------------|
D----------------------------------------------------------------------------|
A----------------------------------------------------------------------------|
E--1---------4----------6-----------1----------4--------6----4//-------13----|


message for specific questions please rate first tab
Добавлено: 27.05.2012
Другие материалы по этой песне:
  • Аккорды и текст

Страница создана 27.05.2012
http://primanota.ru/johnny-lang/still-rainin-chords.htm
Привет, Гость.
Предлагаем пройти революционный курс по гитаре.
Подарок от PrimaNota.Ru, забирай!