PrimaNota.ru - самый крупный в мире бесплатный архив песенных текстов, аккордов, табулатур и нот


Johnny Hobo And The Freight Trains - Dictionary - таба, видео

Регистрация Запомнить меня
Войти через:  Facebook Google Twitter Vk Yandex Mail.ru

Johnny Hobo And The Freight Trains - Dictionary - таба, видео

Печатать
Просмотров: 73
Уроки эстрадного вокала в Санкт-Петербурге
-------------------------------------------------------------------------------
                         Dictionary - Johnny Hobo and the Freight Trains
-------------------------------------------------------------------------------
Tabbed by: squintyjoefan
E-mail: squintyjoefan@hotmail.co.uk

Track 3 from "Anarchy Means I Hate You Demo"

Tuning: Standard (EADGBe)


Song order

Intro
Verse
Chorus
Verse
Chorus
Outro

Intro/Verse Chords

e|---------------------------------------------------------------------------|
B|---------------------------------------------------------------------------|
G|---7------------7----------------------------------------------------------|
D|---7-----4------7-------7--------------------------------------------------|
A|---5-----4------5-------7--------------------------------------------------|
E|---------2--------------5--------------------------------------------------|
     D5    F#5    D5      A5

Intro Riff

e|---------------------------------------------------------------------------|
B|---------------------------------------------------------------------------|
G|---------------------------------------------------------------------------|
D|--------4-2-0--------4-2-0---------4-2-0---------4-4-2---------------------|
A|--55555---------------------55555---------00000----------------------------|
E|---------------22222-------------------------------------------------------|


e|---------------------------------------------------------------------------|
B|---------------------------------------------------------------------------|
G|---------------------------------------------------------------------------|
D|--------4-2-0--------4-2-0---------4-2-0---------2-4-5-4-2-0-2-4-(2)-(0)---|
A|--55555---------------------55555---------00000----------------------------|
E|---------------22222-------------------------------------------------------|

Verse Riff

e|---------------------------------------------------------------------------|
B|---------------------------------------------------------------------------|
G|---------------------------------------------------------------------------|
D|---2-4-5-4-2-0-------------------------------------------------------------|
A|---------------------------------------------------------------------------|
E|---------------------------------------------------------------------------|

Chorus chords

e|---------------------------------------------------------------------------|
B|---------------------------------------------------------------------------|
G|---7---------------------------7-------------------------------------------|
D|---7-----7-----2-----5---------7-----2-----5------2------------------------|
A|---5-----7-----2-----5---------5-----2-----5------2------------------------|
E|---------5-----0-----3---------------0-----3------0------------------------|
     D5    A5    E5    G5        D5    E5    G5     E5



Outro Riff (played twice)

e|---------------------------------------------------------------------------|
B|---------------------------------------------------------------------------|
G|---------------------------------------------------------------------------|
D|--------4-2-0--------4-2-0---------4-2-0---------2-4-5-4-2-0-2-4-----0-----|
A|--55555---------------------55555---------00000----------------------------|
E|---------------22222-------------------------------------------------------|
                                                                    End on this 
                                                                    note the second 
                                                                    time round
Outro Chords 

e|---------------------------------------------------------------------------|
B|---------------------------------------------------------------------------|
G|--7----------7----------7---------9-----7----------------7-----------------|
D|--7----4-----7----7-----7----4----9-----7-----7----------7-----------------|
A|--5----4-----5----7-----5----4----7-----5-----7----------5-----------------|
E|-------2----------5----------2----------------5----------------------------|
   D5   F#5    D5   A5    D5   F#5  E5    D5    A5        End on D5


************************************

| /   slide up
| \   slide down
| h   hammer-on
| p   pull-off
| ~   vibrato
| +   harmonic
| x   Mute note
| b   Bend
| pb  Pre-bend
| br  Bend release
| pbr Pre-bend release
| brb Bend release bend

************************************
Добавлено: 01.11.2013
Другие материалы по этой песне:
  • Аккорды и текст

Страница создана 01.11.2013
http://primanota.ru/johnny-hobo-and-the-freight-trains/dictionary-chords.htm
Привет, Гость.
Предлагаем пройти революционный курс по гитаре.
Подарок от PrimaNota.Ru, забирай!