PrimaNota.ru - самый крупный в мире бесплатный архив песенных текстов, аккордов, табулатур и нот


Johnny Foreigner - Yes You Talk Too Fast - таба, видео

Регистрация Запомнить меня
Войти через:  Facebook Google Twitter Vk Yandex Mail.ru

Johnny Foreigner - Yes You Talk Too Fast - таба, видео

Печатать
Просмотров: 133
Tabbed by; A.Garner
Email; alygarner@hotmail.co.uk

Just the intro, but will definitely finish this.
If you guys like it I will post more.

Unstandard tuning: EADABC#


|-----------------------------------|     x2
|-----------------------------------|
|--9p7---------9p7---------9p7------|
|------9p6---------9p6---------9p6--|
|----------9p7---------9p7----------|
|-----------------------------------|

|-------------------------------10p7--|
|-------------------------------------|
|--9/11p7-------------------9p7-------|
|---------11/9p6--------9p6-----------|
|----------------9/11p7---------------|
|-------------------------------------|

|-------------------------------10p7------|
|-----------------------------------------|
|--9/11p7-------------------9p7------9p7--|
|---------11/9p6--------9p6---------------|
|----------------9/11p7-------------------|
|-----------------------------------------|

again

|-----------------------------------|     x2
|-----------------------------------|
|--9p7---------9p7---------9p7------|
|------9p6---------9p6---------9p6--|
|----------9p7---------9p7----------|
|-----------------------------------|

|-------------------------------10p7--|
|-------------------------------------|
|--9/11p7-------------------9p7-------|
|---------11/9p6--------9p6-----------|
|----------------9/11p7---------------|
|-------------------------------------|

|-------------------------------10p7------|
|-----------------------------------------|
|--9/11p7-------------------9p7------9p7--|
|---------11/9p6--------9p6---------------|
|----------------9/11p7-------------------|
|-----------------------------------------|



|-----------------------------------|
|-----------------------------------|
|--9p7---------9p7---------9p7------|
|------9p6---------9p6---------9p6--|
|----------9p7---------9p7----------|
|-----------------------------------|

|---------------------------------------|
|----10p0-9p0-10p0-9p0-7p0-9p0-10/12p0--|
|---------------------------------------|
|---------------------------------------|
|---------------------------------------|
|---------------------------------------|

|------------------------------------|
|------------------------------------|
|--9p7---------9p7-9p7---------9p7---|
|------9p6-------------9p6-----------|
|----------9p7-------------9p7-------|
|------------------------------------|

                             |singing starts here (inaccurate from here)
|-------------------------------------------------------|
|-------------------------------------------------------|
|--9/11/9p7------------------7-----/19---19b21---21b19--|
|-------------------------------------------------------|
|--9/11/9p7-------9/11/9p7---7-----/19--------------19--|
|------------7p0----------------------------------------|

|--------------------------------------------------------------------|
|--------------------------------------------------------------------|
|------------------------------------------------9---9-9-11---11-11--|
|--------------------------------------------------------------------|
|--7---7---7-----7-------7---------7---7---7---7-9---9-9-11---11-11--|
|------------9-7-----9-7-----9-7-------------------------------------|


|----------------------------------------------------|
|----------------------------------------------------|
|------------------------------------------9b10b9p7--|
|----------------------------------------------------|
|--7---7---7-----7-------7----------7----------------|
|------------9-7-----9-7-----9-7---------------------|


|------0-0-----0-0-----0-0-----0-0--|
|--9-9-----9-9-----9-9-----9-9------|
|-----------------------------------|
|-----------------------------------|
|-----------------------------------|
|-----------------------------------|

|------0-0-----0-0-----0-0-----0-0--|
|--9-9-----9-9-----7-7-----7-7------|
|-----------------------------------|
|-----------------------------------|
|-----------------------------------|
|-----------------------------------|

|-----|
|-----|
|--7--|
|-----|
|--7--|
|-----|


That's all I've got for now. Feedback please, positive or negative.
Добавлено: 15.07.2012
Другие материалы по этой песне:
  • Аккорды и текст

Страница создана 15.07.2012
http://primanota.ru/johnny-foreigner/yes-you-talk-too-fast-chords.htm
Привет, Гость.
Предлагаем пройти революционный курс по гитаре.
Подарок от PrimaNota.Ru, забирай!