PrimaNota.ru - самый крупный в мире бесплатный архив песенных текстов, аккордов, табулатур и нот


Johnny Foreigner - The End And Everything After - таба, видео

Регистрация Запомнить меня
Войти через:  Facebook Google Twitter Vk Yandex Mail.ru

Johnny Foreigner - The End And Everything After - таба, видео

Печатать
Просмотров: 106
-------------------------------------------------------------------------------
                The End And Everything After - Johnny Foreigner
-------------------------------------------------------------------------------

 Tabbed by:dvanwyk
 Email:dustinvanwyk@yahoo.com

 Tuning:Standard

 Intro x2
e|-----------------------------------------------------------|
B|-----------------------------------------------------------|
G|77779999111111111414141412121212141414141616161618181818---|
D|xxxxxxxxx-x-x-x-x-x-x-x-x-x-x-x-x-x-x-x-x-x-x-x-x-x-x-x----|
A|555577779-9-9-9-1212121210101010121212121414141416161616---|
E|-----------------------------------------------------------|

 x2
e|----------------------------------|
B|----------------------------------|
G|18181818191919192121212118181818--|
D|x-x-x-x-x-x-x-x-x-x-x-x-x-x-x-x---|
A|16161616171717171919191916161616--|
E|----------------------------------|

e|-----------------------------------------|
B|-----------------------7p5---------------|
G|-----------------------------------------|
D|-----------------------------------------|
A|---xxxx-xxxx-xxxx-xxxx-----xxxx-xxxx-xx--|
E|3----------------------------------------|

 Verse
e|------------------------------------------------------|
B|------------------------------------------------------|
G|11111111-11/9-99/7-77---11111111-11/9-99/7-77-9/7-77--|
D|x-x-x-x--x--x-xx-x-xx---x-x-x-x--x--x-xx-x-xx-x-x-xx--|
A|10101010-10/9-99/7-77---10101010-10/9-99/7-77-9/7-77--|
E|------------------------------------------------------|

e|-------------------------------------------------|
B|-------------------------------7777999955555555--|
G|11111111-11/9-9----9999-9/-77--7777777777777777--|
D|x-x-x-x--x--x-x----xxxx-x--xx--------------------|
A|10101010-10/9-9----9999-9/-77--------------------|
E|-------------------------------------------------|

e|-------------------------------|
B|-------------------------------|
G|11111111-11/9-9----9999-9/-77--|
D|x-x-x-x--x--x-x----xxxx-x--xx--|
A|10101010-10/9-9----9999-9/-77--|
E|-------------------------------|

e|------------------------------------------------------|
B|------------------------------------------------------|
G|11111111-11/9-99/7-77---11111111-11/9-99/7-77-9/7-77--|
D|x-x-x-x--x--x-xx-x-xx---x-x-x-x--x--x-xx-x-xx-x-x-xx--|
A|10101010-10/9-99/7-77---10101010-10/9-99/7-77-9/7-77--|
E|------------------------------------------------------|

e|--------------------|
B|--777999955555555---|
G|--7777777777777777--|
D|--------------------|
A|--------------------|
E|--------------------|

 Pre-Chorus
e|--------------------------|
B|7~----7~----7~----7~------|
G|0~----0~----0~----0~------|
D|0~----0~----0~----0~------|
A|------x-----x-----x-------|
E|------3~----7~----5~------|

e|---------------------------------------|
B|---------------------------------------|
G|1111112-14-66667777-14141414-1111-6~---|
D|xxxx-x--x--xxxxxxxx-x-x-x-x--xxxx-x----|
A|9999-10-12-44445555-12121212-9999-4~---|
E|---------------------------------------|


 Chorus x2
e|-------------------------------------------------------|
B|7-5-7-5-7-5-777-7-5-7-5-7-5-777-7-7-7-7-55-7-7-7-7-55--|
G|7-7-7-7-7-7-777-7-7-7-7-7-7-777-7-7-7-7-77-7-7-7-7-77--|
D|-------------------------------------------------------|
A|-------------------------------------------------------|
E|-------------------------------------------------------|

 Post-Chorus
e|------------------------------------------|
B|------------------------------------------|
G|7~----9~----6~----7~----4~----2~----14~---|
D|x-----x-----x-----x-----x-----x-----x-----|
A|5~----7~----4~----5~----2~----4~----12~---|
E|------------------------------------------|

 Intro

e|--------------------------------|
B|--------------------------------|
G|0-11-0-9-0-7-0-6-0-4/6\4-2b~----|
D|--------------------------------|
A|--------------------------------|
E|--------------------------------|

 Verse

 Pre-Chorus
 
 Chorus x2


 Bridge
e|-----------------------------------------------------------------------|
B|-----------------------------------------------------------------------|
G|14141414141414141414141414141414141414-161616161616161616161616161616--|
D|x-x-x-x-x-x-x-x-x-x-x-x-x-x-x-x-x-x-x--x-x-x-x-x-x-x-x-x-x-x-x-x-x-x---|
A|12121212121212121212121212121212121212-141414141414141414141414141414--|
E|-----------------------------------------------------------------------|

e|-------------------------------------------------------|
B|-------------------------------------10p0-8p0-7h8b-7---|
G|7/-9-99-9\7-777/9-7-1616161616161616-------------------|
D|x--x-xx-x-x-xxx-x-x-x-x-x-x-x-x-x-x--------------------|
A|5/-7-77-7\5-555/7-5-1414141414141414-------------------|
E|-------------------------------------------------------|

e|-------------------------------------------------------|
B|-------------------------------------------------------|
G|7777999911111111141414141818181818181818--14-12-11-9---|
D|xxxxxxxxx-x-x-x-x-x-x-x-x-x-x-x-x-x-x-x---x--x--x--x---|
A|555577779-9-9-9-121212121616161616161616--12-10-9--7---|
E|-------------------------------------------------------|

e|--------------------------------------------------|
B|--------------------------------------------------|
G|777799991111111114141414181818181919191921212121--|
D|xxxxxxxxx-x-x-x-x-x-x-x-x-x-x-x-x-x-x-x-x-x-x-x---|
A|555577779-9-9-9-12121212161616161717171719191919--|
E|--------------------------------------------------|
Добавлено: 18.07.2012
Другие материалы по этой песне:
  • Аккорды и текст

Страница создана 18.07.2012
http://primanota.ru/johnny-foreigner/the-end-and-everything-after-chords.htm
Привет, Гость.
Предлагаем пройти революционный курс по гитаре.
Подарок от PrimaNota.Ru, забирай!