PrimaNota.ru - самый крупный в мире бесплатный архив песенных текстов, аккордов, табулатур и нот


Johnny Foreigner - Security To The Promenade - бас-таба, видео

Регистрация Запомнить меня
Войти через:  Facebook Google Twitter Vk Yandex Mail.ru

Johnny Foreigner - Security To The Promenade - бас-таба, видео

Печатать
Просмотров: 100
-------------------------------------------------------------------------------
              Security To The Promenade - Johnny Foreigner
-------------------------------------------------------------------------------

 Tabbed by:dvanwyk
 Email:dustinvanwyk@yahoo.com

 Tuning:Standard

 Intro (0.14)
G|-----------------------------------------------------------|
D|--------------------------2222-/4444-----------2222-/4444--|
A|4444444444444444-------------------------------------------|
E|-----------------33333333-------------22222222-------------|

G|---------------------|
D|---------------------|
A|----------22222222---|
E|3~---3~--------------|

G|-------------------------------------------------|
D|-------------------------------------------------|
A|555555555555-7777-9999----------222222222222222--|
E|-----------------------33333333------------------|

G|-------------------|
D|-------------------|
A|555555555555-7777--|
E|-------------------|

 Verse x2
G|--------------------------------------|
D|--------------------------------------|
A|---------2222222-4-5555555555555555---|
E|33333333------------------------------|

G|---------------------------------|
D|--------------------------7------|
A|---------2-2-2-55555555-5---5----|
E|33333333-------------------------|

G|--------------------------------------|
D|--------------------------------------|
A|---------2222222-4-5555555555555555---|
E|33333333------------------------------|

 Pause

 Chorus (1.03)
G|--------------------------------------------------------------------|
D|--------------------------------------------------------------------|
A|-----------2-----------------------------5--4--2----------22222222--|
E|3~----2~------5--3--2--33333333-22222222----------5--3~-------------|

G|-------------------------------------------------|
D|-------------------------------------------------|
A|555555555555-7777-9999----------222222222222222--|
E|-----------------------33333333------------------|

G|--------------------|
D|--------------------|
A|555555555555-7-7-7--|
E|--------------------|

 Verse

 Pause

 Chorus (1.56)
G|----------------------------------------------------------------|
D|----------------------------------------------------------------|
A|-----------2-----------------------------5--4--2----------5/----|
E|3~----2~------5--3--2--33333333-22222222----------5--3~---------|


 Outro (2.18)
G|-----------------------------------------------------------|
D|--------------------------2222-/4444-----------2222-/4444--|
A|4444444444444444-------------------------------------------|
E|-----------------33333333-------------22222222-------------|

G|-------------|
D|-------------|
A|-------------|
E|3~---2~------|

G|----------------------------------------------|
D|----------------------------------------------|
A|-----------2----------------------------------|
E|3~----2~------5--3--2--3333333333333333-5555--|

G|-----|
D|-----|
A|5~---|
E|-----|
Добавлено: 07.07.2012
Другие материалы по этой песне:
  • Аккорды и текст

Страница создана 07.07.2012
http://primanota.ru/johnny-foreigner/security-to-the-promenade-chords.htm
Привет, Гость.
Предлагаем пройти революционный курс по гитаре.
Подарок от PrimaNota.Ru, забирай!