PrimaNota.ru - самый крупный в мире бесплатный архив песенных текстов, аккордов, табулатур и нот


Johnny Foreigner - More Heart Less Tongue - бас-таба, видео

Регистрация Запомнить меня
Войти через:  Facebook Google Twitter Vk Yandex Mail.ru

Johnny Foreigner - More Heart Less Tongue - бас-таба, видео

Печатать
Просмотров: 106
-------------------------------------------------------------------------------
	   More Heart, Less Tongue - Johnny Foreigner
-------------------------------------------------------------------------------

 Tabbed by:dvanwyk
 Email:dustinvanwyk@yahoo.com

 Tuning:Standard

 Verse (0.10)
G|--------------------------------------------|
D|--------------------------------------------|
A|-----8-87----5-7-8-88------8-88-5-55-8-88---|
E|5-55-------8----------5-55------------------|

G|-------------|
D|-------------|
A|-----8-87----|
E|5-55---------|

 Chorus
G|---------------------------------------------------------|
D|---------------------------------------------------------|
A|---------------------------------------------------------|(NB:1's not 11's)
E|88888888-55555555-11111111-88888888-55555555-11111111-8--|


 verse
G|-------------------------------------------|
D|-------------------------------------------|
A|--5-7-8-88------8-88-5-55-8-88------8-87---|
E|8----------5-55----------------5-55--------|

G|-------------------|
D|-------------------|
A|----88------88-----|
E|88------55---------|

G|-------------------------|
D|-------------------------|
A|--5-7-8-88------8-87-----|
E|8----------5-55----------|

 Chorus

 Bridge x2
G|------------------------------------------|
D|----------------------------7-77----------|
A|----8-7-------88-7------------------------|
E|8-8------3-33------8-8-1-11------8-88-----|

G|--------------------------------------|
D|--------------------------------------|
A|---------33333333----------55555555---|
E|55555555----------33333333------------|

G|--------------------------------------|
D|--------------------------------------|
A|8888888-7----------------------/8~----|
E|----------8888-3333-1111111111--------|

G|-------------------------5---------------------------------------------|
D|-----------------------------------------------------------------------|
A|-----8888------8888--5-5---8-88------8-8-7-------8888-/12121212-8888---|
E|8888------5555------------------5-55--------8888-----------------------|

G|----5--------------------|
D|-------------------------|
A|5-5---8-88------8-8-7----|
E|-----------5-55----------|


 Chorus

 Bridge x2
G|------------------------------------------|
D|----------------------------7-77----------|
A|----8-7-------88-7------------------------|
E|8-8------3-33------8-8-1-11------8-88-----|

G|--------------------------------------|
D|--------------------------------------|
A|---------33333333----------55555555---|
E|55555555----------33333333------------|

G|--------------------------------------|
D|--------------------------------------|
A|8888888-7----------------------/8~----|
E|----------8888-3333-1111111111--------|

 Outro x4
G|-----------------------|
D|-----------------------|
A|------8-88------8-88---|
E|8-88-------5-55--------|

 (2.50)
G|---------|
D|---------|
A|3~-------|
E|---------|
Добавлено: 05.04.2012
Другие материалы по этой песне:
  • Аккорды и текст

Страница создана 05.04.2012
http://primanota.ru/johnny-foreigner/more-heart-less-tongue-chords.htm
Привет, Гость.
Предлагаем пройти революционный курс по гитаре.
Подарок от PrimaNota.Ru, забирай!