PrimaNota.ru - самый крупный в мире бесплатный архив песенных текстов, аккордов, табулатур и нот


Johnny Foreigner - Kingston Called They Want Their Lost Youth Back - бас-таба, видео

Регистрация Запомнить меня
Войти через:  Facebook Google Twitter Vk Yandex Mail.ru

Johnny Foreigner - Kingston Called They Want Their Lost Youth Back - бас-таба, видео

Печатать
Просмотров: 108
-------------------------------------------------------------------------------
   Kingston Called, They Want Their Lost Youth Back - Johnny Foreigner
-------------------------------------------------------------------------------

 Tabbed by:dvanwyk
 Email:dustinvanwyk@yahoo.com

 Tuning:Standard

 Verse x4
G|-------------------|
D|-------------------|
A|---77-4-44---------|
E|00---------55------|

 x4
G|-------------------|
D|-------------------|
A|----7-7-4-4--------|
E|0-0---------5------|

 Chorus
G|-------------------------------------|
D|-------------------------------------|
A|-------------------------------------|
E|00000000000000-44-5555555555555555---|

 Pause

 Chorus

 Outro
G|------------------|
D|-----------4------|
A|---77-4-44---7----|
E|00----------------|
Добавлено: 20.03.2012
Другие материалы по этой песне:
  • Аккорды и текст

Страница создана 20.03.2012
http://primanota.ru/johnny-foreigner/kingston-called-they-want-their-lost-youth-back-chords.htm
Привет, Гость.
Предлагаем пройти революционный курс по гитаре.
Подарок от PrimaNota.Ru, забирай!