PrimaNota.ru - самый крупный в мире бесплатный архив песенных текстов, аккордов, табулатур и нот


Johnny Foreigner - I Woke Up On A Beach In Aberystwyth - бас-таба, видео

Регистрация Запомнить меня
Войти через:  Facebook Google Twitter Vk Yandex Mail.ru

Johnny Foreigner - I Woke Up On A Beach In Aberystwyth - бас-таба, видео

Печатать
Просмотров: 85
-------------------------------------------------------------------------------
	  I Woke Up On A Beach In Aberystwyth - Johnny Foreigner
-------------------------------------------------------------------------------

 Tabbed by:dvanwyk
 Email:dustinvanwyk@yahoo.com

 Tuning:Standard

 Intro x3 (0.07)
G|---------------------------------------|
D|---------------------------------------|
A|--------------------------------44-----|
E|77777777-22222222-0000000000000--------|

G|---------------------------------------|
D|---------------------------------------|
A|---------------------------------------|
E|44444444-22222222-0000000000000000-----|

 Pause

 Verse x2
G|-----------------------------------------------------------|
D|-----------------------------------------------------------|
A|-----------------------------------------------------------|
E|00000000-77777777----00000000-77777777-44444444-55555555---|


G|------------------------|
D|------------------------|
A|4~----4-2------7~-------|
E|----------2-0-----------|

 Pause

 Intro 

 Pause

 Verse

 Chorus


 Bridge x3
G|----------------------------------------|
D|----------------------------------------|
A|----------------------------------------|
E|77777777-666-2222-00000000-44444444-----|

 x1
G|---------------------------------------|
D|---------------------------------------|
A|---------------------------------2~----|
E|77777777-666-2222-00000000-4-0-4-------|

 Intro 


G|------------------|
D|------------------|
A|444-4-4-2~--------|
E|------------------|
Добавлено: 22.05.2012
Другие материалы по этой песне:
  • Аккорды и текст

Страница создана 22.05.2012
http://primanota.ru/johnny-foreigner/i-woke-up-on-a-beach-in-aberystwyth-chords.htm
Привет, Гость.
Предлагаем пройти революционный курс по гитаре.
Подарок от PrimaNota.Ru, забирай!