PrimaNota.ru - самый крупный в мире бесплатный архив песенных текстов, аккордов, табулатур и нот


Johnny Foreigner - Grace And The Bigger Picture - бас-таба, видео

Регистрация Запомнить меня
Войти через:  Facebook Google Twitter Vk Yandex Mail.ru

Johnny Foreigner - Grace And The Bigger Picture - бас-таба, видео

Печатать
Просмотров: 104
 Johnny Foreigner
 Grace And The Bigger Picture

 1.Choose Yr Side And Shut Up!
 2.Security To The Promenade
 3.Ghost The Festivals
 4.Feels Like Summer
 5.I'llchoosemysideandshutup, alright
 6.Criminals
 7.Custom Scenes And The Parties That Make Them
 8.More Heart, Less Tongue
 9.Kingston Called, They Want Their Lost Youth Back
 10.I Woke Up On A Beach In Aberystwyth
 11.(Graces) (No Bass)
 12.Dark Harbourzz
 13.Every Cloakroom Ever
 14.More Tongue, Less Heart (No Bass)
 15.The Coast Was Always Clear
 

===============================================================================

-------------------------------------------------------------------------------
 1. Choose Yr Side And Shut Up!
-------------------------------------------------------------------------------

 Intro/Verse x2
G|------------------------------------------|
D|------------------------------------------|
A|--------------------5-55-/9-99-2-22-5-55--|
E|5-55-2-0--2-22-2-0------------------------|

 Verse x2

 Chorus
G|--------------------------------------------------------------------|
D|--------------------------------------------------------------------|
A|44-44-4-55-55-5-22-22-2-55-55-5--44-44-4-55-55-5-22-22-2-5555-7777--|
E|--------------------------------------------------------------------|

 Verse x1

G|--------|
D|--------|
A|--------|
E|5\------|

 Pause

G|-------------------------|
D|-------------------------|
A|5-55-/9-99-2-22-5-55-----|
E|-------------------------|

 Verse x1

G|--------|
D|--------|
A|--------|
E|5\------|

 Pause

G|-------------------------|
D|-------------------------|
A|5-55-/9-99-2-22-5-55-----|
E|-------------------------|

 x2
G|-------------------------------------|
D|-------------------------------------|
A|44444444-55555555-22222222-55555555--|
E|-------------------------------------|

G|--------------------|
D|--------------------|
A|5~----2~------------|
E|------------3~------|


===============================================================================

-------------------------------------------------------------------------------
 2. Security To The Promenade
-------------------------------------------------------------------------------

 Intro (0.14)
G|-----------------------------------------------------------|
D|--------------------------2222-/4444-----------2222-/4444--|
A|4444444444444444-------------------------------------------|
E|-----------------33333333-------------22222222-------------|

G|---------------------|
D|---------------------|
A|----------22222222---|
E|3~---3~--------------|

G|-------------------------------------------------|
D|-------------------------------------------------|
A|555555555555-7777-9999----------222222222222222--|
E|-----------------------33333333------------------|

G|-------------------|
D|-------------------|
A|555555555555-7777--|
E|-------------------|

 Verse x2
G|--------------------------------------|
D|--------------------------------------|
A|---------2222222-4-5555555555555555---|
E|33333333------------------------------|

G|---------------------------------|
D|--------------------------7------|
A|---------2-2-2-55555555-5---5----|
E|33333333-------------------------|

G|--------------------------------------|
D|--------------------------------------|
A|---------2222222-4-5555555555555555---|
E|33333333------------------------------|

 Pause

 Chorus (1.03)
G|--------------------------------------------------------------------|
D|--------------------------------------------------------------------|
A|-----------2-----------------------------5--4--2----------22222222--|
E|3~----2~------5--3--2--33333333-22222222----------5--3~-------------|

G|-------------------------------------------------|
D|-------------------------------------------------|
A|555555555555-7777-9999----------222222222222222--|
E|-----------------------33333333------------------|

G|--------------------|
D|--------------------|
A|555555555555-7-7-7--|
E|--------------------|

 Verse

 Pause

 Chorus (1.56)
G|----------------------------------------------------------------|
D|----------------------------------------------------------------|
A|-----------2-----------------------------5--4--2----------5/----|
E|3~----2~------5--3--2--33333333-22222222----------5--3~---------|


 Outro (2.18)
G|-----------------------------------------------------------|
D|--------------------------2222-/4444-----------2222-/4444--|
A|4444444444444444-------------------------------------------|
E|-----------------33333333-------------22222222-------------|

G|-------------|
D|-------------|
A|-------------|
E|3~---2~------|

G|----------------------------------------------|
D|----------------------------------------------|
A|-----------2----------------------------------|
E|3~----2~------5--3--2--3333333333333333-5555--|

G|-----|
D|-----|
A|5~---|
E|-----|

===============================================================================

-------------------------------------------------------------------------------
 3. Ghost The Festivals
-------------------------------------------------------------------------------

 Verse x2
G|---------------------------------------------|
D|--77-7p6-66-6p5-55-5p4-44-4p2-22-2p0-0-------|
A|---------------------------------------4-----|
E|5--------------------------------------------|

G|-----------------------|
D|-----------------------|
A|---------------44------|
E|55-5-55-5-77-7---------|

G|-----------------------------|
D|-----------------------------|
A|9-99-9p7-77-7p5-55-5p4-44----|
E|-----------------------------|

G|---------------------|
D|---------------------|
A|---------------------|
E|22-2-22-2-22-4-44----|

 Chorus
G|------------------------------------------------------------|
D|------------------------------------------------------------|
A|--------------55555555----------55555555-22222222-33333333--|
E|5~---33333333----------33333333-----------------------------|

 Pause

G|-------------------------------------------------------|
D|-------------------------------------------------------|
A|---------55555555----------55555555-22222222-33333333--|
E|33333333----------33333333-----------------------------|

G|-----------------------|
D|-----------------------|
A|9999-7777-55555-444----|
E|-----------------------|

 Verse x2

 Chorus

G|-----------------------|
D|-----------------------|
A|9999-7777-55555-444----|
E|-----------------------|

G|-------------------------|
D|---------66666666-777----|
A|99999999-----------------|
E|-------------------------|

G|----------------------------------------------|
D|----------------------------------------------|
A|-----44------------------22222222-44444444----|
E|77--------77---55---77------------------------|

G|------------------------------------------------|
D|777---------------------------------------------|
A|-----------44------------------2222222-4444444--|
E|------77--------77---55---77--------------------|

 Pause

 (2.01)
G|11~----9~-------|
D|----------------|
A|----------------|
E|----------------|

G|-------------------------------------------------------|
D|-------------------------------------------------------|
A|---------55555555----------55555555-22222222-33333333--|
E|33333333----------33333333-----------------------------|

G|-----------------------|
D|-----------------------|
A|9999-7777-55555-444----|
E|-----------------------|

 x2
G|------------------------|
D|-----6666---------------|
A|9999------7777-5555-----|
E|------------------------|

G|---------------|
D|---------------|
A|1212--12-------|
E|---------------|

===============================================================================

-------------------------------------------------------------------------------
 5. I'llchoosemysideandshutup, alright
-------------------------------------------------------------------------------

 Outro (1.04)
G|---------------------------------------------------------|
D|---------------------------------------------------------|
A|-------------/10-10-10-10-10-10-9-9-9-9-9-9-7-7-7-7-7-7--|
E|7-7-7-5-5-5----------------------------------------------|

G|---------|
D|---------|
A|5~-------|
E|---------|

===============================================================================

-------------------------------------------------------------------------------
 6. Criminals 
-------------------------------------------------------------------------------

 Intro (0.02)
G|---------------------------|
D|---------------------------|
A|---------------------------|
E|5-5-5-5-5-5-0-0-0-0-0-0----|

G|-------------------------------------------------|
D|4-4-4-4-4-4-7-7-7--------4-4-4-4-4-4-7~----7~----|
A|------------------7-7-7-----------------7~-------|
E|-------------------------------------------------|

 Pause

 Verse x4 (0.29)
G|--------------------------------|
D|--------------------------------|
A|--------------------------------|
E|5555555555555555-00----00-------|

 Chorus x2
G|----------------------------------------------------------------------|
D|----------------------------------------------------------------------|
A|5555555555555555-2222222222222222-------------------------------------|
E|----------------------------------5555555555555555-00000000000000000--|

 Post-Chorus
G|----------|
D|----------|
A|----------|
E|5~--------|

G|-------------------------------------------------------|
D|-------------------------------------------------------|
A|--------------------------------------------555555555--|
E|0000000000000000-22222222222222222-00000000------------|

G|---------------------------------------------------------------------|
D|---------------------------------------------------------------------|
A|------------------------------------------------------------5555555--|
E|5555555555555555-0000000000000000-2222222222222222-00000000----------|

 Pause

 Verse (1.38)

 Chorus x2

 Post-Chorus
G|----------|
D|----------|
A|----------|
E|5~--------|

G|---------------------------|
D|---------------------------|
A|-------------------55~-----|
E|00~----22~----00~----------|

G|--------------------------------|
D|--------------------------------|
A|--------------------------55~---|
E|55~----00~----22~----00~--------|

G|-----------------------------------------|
D|-----------------------------------------|
A|------------------------------555555555--|
E|5555~--0000~--2222~--00000000------------|

G|--------------------------------------------------|
D|--------------------------------------------------|
A|---------------------------------------55555555---|
E|5555~--0000~-2222222222222222-00000000------------|

G|------------------------------------|
D|------------------------------------|
A|-----------------55555555-77777777--|
E|7777777777777777--------------------|

===============================================================================

-------------------------------------------------------------------------------
 7. Custom Scenes And The Parties That Make Them
-------------------------------------------------------------------------------

 Intro
G|--------------------------------------------------|
D|-----------7\----------------------7\-------------|
A|2~----0~-------5~--5/7--2~----0~-------5~--5-4----|
E|--------------------------------------------------|

 x2
G|------------------------|
D|-----------7\-----------|
A|2~----0~-------5~-------|
E|------------------------|

 Verse x2 (0.24)
G|------------99-77-66----99-77-66----------|
D|---------------------77----------77-99----|
A|55--77--99-----------------------------7--|
E|------------------------------------------|

 x1
G|------------99-77-66----99-77-66----------|
D|---------------------77----------99-77----|
A|55--77--99-----------------------------9--|
E|------------------------------------------|

 Post-Chorus
G|------------------------------------------|
D|------------------------------------------|
A|5~--4~--2~-------------------------5~-----|
E|------------5~--00000000-55555555---------|

 Chorus x2
G|--------------------------------------------|
D|--------------------------------------------|
A|9999999999999999-/7777777777777777-(Pause)--|
E|--------------------------------------------|

 Pause

 Verse (1.08)
G|---------99-77-66----99-77-66----------|
D|------------------77----------77-99----|
A|-77--99-----------------------------7--|
E|---------------------------------------|

G|------------99-77-66----99-77-66----------|
D|---------------------77----------77-99----|
A|55--77--99-----------------------------7--|
E|------------------------------------------|

 x1
G|------------99-77-66----99-77-66----------|
D|---------------------77----------99-77----|
A|55--77--99-----------------------------9--|
E|------------------------------------------|

 Post-Chorus

 Chorus x2


 Bridge x4
G|------------------------------------------|
D|------------------7777--------------------|
A|22222222-00000000------5555555555555555---|
E|------------------------------------------|

 x4
G|------------------------|
D|-----------7\-----------|
A|2~----0~-------5~-------|
E|------------------------|

 x4
G|---------------------------------------------|
D|-----44-22----------7777---------------------|
A|2222-------00000000------55555555555555555---|
E|---------------------------------------------|

G|----------|
D|----------|
A|----------|
E|5---------|

===============================================================================

-------------------------------------------------------------------------------
 8. More Heart, Less Tongue
-------------------------------------------------------------------------------

 Verse (0.10)
G|--------------------------------------------|
D|--------------------------------------------|
A|-----8-87----5-7-8-88------8-88-5-55-8-88---|
E|5-55-------8----------5-55------------------|

G|-------------|
D|-------------|
A|-----8-87----|
E|5-55---------|

 Chorus
G|---------------------------------------------------------|
D|---------------------------------------------------------|
A|---------------------------------------------------------|(NB:1's not 11's)
E|88888888-55555555-11111111-88888888-55555555-11111111-8--|


 verse
G|-------------------------------------------|
D|-------------------------------------------|
A|--5-7-8-88------8-88-5-55-8-88------8-87---|
E|8----------5-55----------------5-55--------|

G|-------------------|
D|-------------------|
A|----88------88-----|
E|88------55---------|

G|-------------------------|
D|-------------------------|
A|--5-7-8-88------8-87-----|
E|8----------5-55----------|

 Chorus

 Bridge x2
G|------------------------------------------|
D|----------------------------7-77----------|
A|----8-7-------88-7------------------------|
E|8-8------3-33------8-8-1-11------8-88-----|

G|--------------------------------------|
D|--------------------------------------|
A|---------33333333----------55555555---|
E|55555555----------33333333------------|

G|--------------------------------------|
D|--------------------------------------|
A|8888888-7----------------------/8~----|
E|----------8888-3333-1111111111--------|

G|-------------------------5---------------------------------------------|
D|-----------------------------------------------------------------------|
A|-----8888------8888--5-5---8-88------8-8-7-------8888-/12121212-8888---|
E|8888------5555------------------5-55--------8888-----------------------|

G|----5--------------------|
D|-------------------------|
A|5-5---8-88------8-8-7----|
E|-----------5-55----------|


 Chorus

 Bridge x2
G|------------------------------------------|
D|----------------------------7-77----------|
A|----8-7-------88-7------------------------|
E|8-8------3-33------8-8-1-11------8-88-----|

G|--------------------------------------|
D|--------------------------------------|
A|---------33333333----------55555555---|
E|55555555----------33333333------------|

G|--------------------------------------|
D|--------------------------------------|
A|8888888-7----------------------/8~----|
E|----------8888-3333-1111111111--------|

 Outro x4
G|-----------------------|
D|-----------------------|
A|------8-88------8-88---|
E|8-88-------5-55--------|

 (2.50)
G|---------|
D|---------|
A|3~-------|
E|---------|

===============================================================================

-------------------------------------------------------------------------------
 9. Kingston Called, They Want Their Lost Youth Back
-------------------------------------------------------------------------------

 Verse x4
G|-------------------|
D|-------------------|
A|---77-4-44---------|
E|00---------55------|

 x4
G|-------------------|
D|-------------------|
A|----7-7-4-4--------|
E|0-0---------5------|

 Chorus
G|-------------------------------------|
D|-------------------------------------|
A|-------------------------------------|
E|00000000000000-44-5555555555555555---|

 Pause

 Chorus

 Outro
G|------------------|
D|-----------4------|
A|---77-4-44---7----|
E|00----------------|

===============================================================================

-------------------------------------------------------------------------------
 10. I Woke Up On A Beach In Aberystwyth
-------------------------------------------------------------------------------

 Intro x3 (0.07)
G|---------------------------------------|
D|---------------------------------------|
A|--------------------------------44-----|
E|77777777-22222222-0000000000000--------|

G|---------------------------------------|
D|---------------------------------------|
A|---------------------------------------|
E|44444444-22222222-0000000000000000-----|

 Pause

 Verse x2
G|-----------------------------------------------------------|
D|-----------------------------------------------------------|
A|-----------------------------------------------------------|
E|00000000-77777777----00000000-77777777-44444444-55555555---|


G|------------------------|
D|------------------------|
A|4~----4-2------7~-------|
E|----------2-0-----------|

 Pause

 Intro 

 Pause

 Verse

 Chorus


 Bridge x3
G|----------------------------------------|
D|----------------------------------------|
A|----------------------------------------|
E|77777777-666-2222-00000000-44444444-----|

 x1
G|---------------------------------------|
D|---------------------------------------|
A|---------------------------------2~----|
E|77777777-666-2222-00000000-4-0-4-------|

 Intro 


G|------------------|
D|------------------|
A|444-4-4-2~--------|
E|------------------|

===============================================================================

-------------------------------------------------------------------------------
 11. (Graces)
-------------------------------------------------------------------------------

 No Bass

===============================================================================

-------------------------------------------------------------------------------
 12. Dark Harbourzz
-------------------------------------------------------------------------------

 Intro (0.11)
G|--------------|
D|--------------|
A|5~----55------|
E|--------------|

 Verse x2
G|--------------------2-1---------------|
D|---7-6-----------------------2--------|
A|55----------4----22-----4-44---4------|
E|-------5-55---5-----------------------|

 Pre-Chorus
G|--------------------------------------|
D|--------------44--44------------------|
A|55--55------------------------4-4-----|
E|-------55--55--------55--55-7---------|

 Chorus
G|----------------------------------------------------------------------|
D|-----------------777-666-444-----------------------------7-7---4-4----|
A|5555555555555555-------------------4-7--5555555555555555--------------|
E|-----------------------------555-7------------------------------------|

G|------------------|
D|------------------|
A|5-5-5-5-4-4-4-----|
E|------------------|

 x2
G|------------------------|
D|------------------------|
A|5~----------------------|
E|-----5~----7~----9~-----|

 verse x2

 Pre-Chorus
G|--------------------------------------|
D|--------------44--44------------------|
A|55--55------------------------4-4-----|
E|-------55--55--------55--55-7---------|

G|------------------------------------------------------------------------------|
D|------------------------------------44444444444444----------------------------|
A|5555555555555555-----------------------------------77-------------------4-4---|
E|-----------------555555555555555-77-------------------55555555555-555-7-------|

 x2
G|----------------------------------------------------------------------|
D|-----------------777-666-444-----------------------------7-7---4-4----|
A|5555555555555555-------------------4-7--5555555555555555--------------|
E|-----------------------------555-7------------------------------------|

G|------------------|
D|------------------|
A|5-5-5-5-4-4-4-----|
E|------------------|

 Outro
G|-----------------------------------------------------|
D|-----------------------------7~----------11~---------|
A|5~---------------------------------9~-----------5~---|
E|-----5~----7~----9~----9~----------------------------|

===============================================================================


-------------------------------------------------------------------------------
 13. Every Cloakroom Ever
-------------------------------------------------------------------------------

 Verse x2 (0.17)
G|-----------------------------------------|
D|--------------4-4------------------4-----|
A|5-----------5-----5-5--5-------5-----5---|
E|--5-3-2--2---------------5-3-2---5-------|

 Pause

 Chorus (0.52)
G|---------------------------------------------------------------------------------------------|
D|---------------------------------------------------------------------------------------------|
A|444-555555555555-------------------------------------444-5555555555555555--------------------|
E|-----------------222-333333333333-555-77777777777777----------------------33333333-55555555--|

 Verse x2

 Pause

 Chorus (1.50)


===============================================================================

------------------------------------------------------------------------------- 
 14. More Tongue, Less Heart
-------------------------------------------------------------------------------

 No bass

===============================================================================

-------------------------------------------------------------------------------
 15. The Coast Was Always Clear 
-------------------------------------------------------------------------------

 Intro
G|-------/19~------|
D|-----------------|
A|14~--------------|
E|-----------------|

 x2
G|------------------------------------------------------------------------|
D|-----------------4444444444444444---------------------------------------|
A|----------------------------------4444444444444444-44444444-/77777777---|
E|5555555555555555--------------------------------------------------------|

 Pause

 Verse x2 (0.45)
G|----------------------------------------|
D|----------------------------------------|
A|5-55--4-44--55555555----------22222222--|
E|---------------------22222222-----------|

G|--------------------------------------------------------|
D|-4444444444444444---------------------------------------|
A|------------------4444444444444444-44444444-/77777777---|
E|--------------------------------------------------------|

G|------------------------------------------------------------------------|
D|-----------------4444444444444444---------------------------------------|
A|----------------------------------4444444444444444-44444444-/77777777---|
E|5555555555555555--------------------------------------------------------|


 Chorus
G|--------------------------------------|
D|--------------------------------------|
A|5-55-5--5-55-9p7--5-55-5--5-55-9p7----|
E|--------------------------------------|

G|6-----------6-4-44-4-4--6-----------6-4-44-4-6-4-2-4---|
D|--4-44-2------------------4-44-2-----------------------|
A|---------5-----------------------5---------------------|
E|-------------------------------------------------------|

 Pause

 Verse (1.56)

 Chorus

 Bridge (2.46 - 4.19)
G|--------------------|
D|--------------------|
A|2~------------------|
E|------2~----5~------|

 (4.20 - 4.43)
G|----------------------------|
D|----------------------------|
A|------------2--2------------|
E|5--5--5--5--------2---2--0--|

 (4.44)
G|--------------------------------------------------------------|
D|--------------------------------------------------------------|
A|------------------------------2-2-2-2-2-2-222-----------------|
E|5-5-5-5-5-5-555-5-5-5-5-5-555-----------------2-2-2-2-2-22-0--|

G|------------------------------------------------------|
D|------------------------------------------------------|
A|-------------------22222222222222222------------------|
E|555555555555555555-------------------222222222222-0---|

 x4
G|------------------------------------------------------------------------|
D|-----------------4444444444444444---------------------------------------|
A|----------------------------------4444444444444444-44444444-/77777777---|
E|5555555555555555--------------------------------------------------------|

 x4
G|--------------|NB:Make alot of Noise
D|--------------|
A|15/-11/-------|
E|--------------|

 Pause


 (9.24)
G|-------------------------------------|
D|-------------------------------------|
A|---7-6-------------------------------|
E|5~-----7-0~----5--5--5--5-5~---------|

G|-----------------------4/6-4---------|
D|---------------2-24-46-------4-2~----|
A|---7-6-------------------------------|
E|5~-----7-0~--------------------------|

G|-----------------------------------------------------------|
D|----------------6-4----------------------------------------|
A|--------4-44-44-----7--------------------------------------|
E|5~-55-7---------------5-55-55-55-2-22-22-22-2-4-44-44-44---|

G|--------------------------------|
D|--------------------------------|
A|---7-6------------7-6-----------|
E|5~-----7-0~----5~-----7-0~------|

G|-----------------------------------------------------------|
D|----------------6-4----------------------------------------|
A|--------4-44-44-----7--------------------------------------|
E|5~-55-7---------------5-55-55-55-2-22-22-22-2-4-44-44-44---|


G|---------------------------------------------------------------------------------------|
D|---------------------------------------------------------------------------------------|
A|-----------------4444444444444444------------------------------------------------------|
E|5555555555555555------------------00000000000000000-5555555555555555-222222222222222---|


G|---------------------------------------------------------------------------------------|
D|---------------------------------------------------------------------------------------|
A|4444444444444444-----------------------------------------------------------------------|
E|-----------------0000000000000000-5555555555555555-2222222222222222-44444444444444444--|

G|----------------|
D|----------------|
A|---4-6-7--------|
E|5~-------0~-----|



===============================================================================
Добавлено: 07.03.2012
Другие материалы по этой песне:
  • Аккорды и текст

Страница создана 07.03.2012
http://primanota.ru/johnny-foreigner/grace-and-the-bigger-picture-chords.htm
Привет, Гость.
Предлагаем пройти революционный курс по гитаре.
Подарок от PrimaNota.Ru, забирай!