PrimaNota.ru - самый крупный в мире бесплатный архив песенных текстов, аккордов, табулатур и нот


Johnny Foreigner - Feels Like Summer - бас-таба, видео

Регистрация Запомнить меня
Войти через:  Facebook Google Twitter Vk Yandex Mail.ru

Johnny Foreigner - Feels Like Summer - бас-таба, видео

Печатать
Просмотров: 139
Уроки эстрадного вокала в Санкт-Петербурге
-------------------------------------------------------------------------------
	    Feels Like Summer - Johnny Foreigner
-------------------------------------------------------------------------------

 Tabbed by:dvanwyk
 Email:dustinvanwyk@yahoo.com

 Tuning:Standard

 Verse (0.16)
G|-----------------------------------------------------------------------|
D|-----------------------------------------------------------------------|
A|-------55-444444--------------55-4444444-------------55-444444---------|
E|555555-----------2222--555555------------2-5--555555-----------222222--|

G|-----------------------|
D|-----------------------|
A|99999999-7-55555555-4--|
E|-----------------------|

G|------------------------------------|
D|------------------------------------|
A|-------55-444444--------------55-4--|
E|555555-----------2222--555555-------|

G|--------------------------|
D|--------------------------|
A|-------55-444444----------|
E|555555-----------222222---|

G|-----------------------|
D|-----------------------|
A|99999999-7-55555555-4--|
E|-----------------------|


 Chorus
G|----------------------------------------|
D|----------------------------------------|
A|------------------55555555-4-22222222---|
E|22222222-33333333-----------------------|

G|------------------------------------|
D|------------------------------------|
A|------------------5555555555555555--|
E|22222222-33333333-------------------|

G|---------------|
D|---------------|
A|2~------5~-----|
E|------4--------|

 
 Verse

G|-----------------------------------------------------------------------|
D|-----------------------------------------------------------------------|
A|-------55-444444--------------55-4444444-------------55-444444---------|
E|555555-----------2222--555555------------2-5--555555-----------222222--|

G|-----------------------|
D|-----------------------|
A|99999999-7-55555555-4--|
E|-----------------------|

G|--------------------------------------------|
D|--------------------------------------------|
A|------5-5-5-4-4-4--------------5-5-5-4-4-4--|
E|5-5-5-------------2-2-2--5-5-5--------------|

G|--------------------------|
D|--------------------------|
A|-------55-444444----------|
E|555555-----------222222---|

G|-----------------------|
D|-----------------------|
A|99999999-7-55555555-4--|
E|-----------------------|


 Chorus

 Pause

 Chorus (1.37)
Добавлено: 10.04.2012
Другие материалы по этой песне:
  • Аккорды и текст

Страница создана 10.04.2012
http://primanota.ru/johnny-foreigner/feels-like-summer-chords.htm
Привет, Гость.
Предлагаем пройти революционный курс по гитаре.
Подарок от PrimaNota.Ru, забирай!