PrimaNota.ru - самый крупный в мире бесплатный архив песенных текстов, аккордов, табулатур и нот


Johnny Foreigner - Every Cloakroom Ever - таба, бас-таба, видео

Регистрация Запомнить меня
Войти через:  Facebook Google Twitter Vk Yandex Mail.ru

Johnny Foreigner - Every Cloakroom Ever - таба, бас-таба, видео

Печатать
Просмотров: 163
Уроки эстрадного вокала в Санкт-Петербурге
-------------------------------------------------------------------------------
            Every Cloakroom Ever - Johnny Foreigner
-------------------------------------------------------------------------------

 Tabbed by:dvanwyk
 Email:dustinvanwyk@yahoo.com

 Tuning:Standard

 Verse x6
e|------------------------------|
B|12+~----7+~----------12+~-----|
G|------------------------------|
D|--------------7+~-------------|
A|--------------9+~-------------|
E|------------------------------|

 Pre-Chorus
e|----------------------------------------------------------|
B|--0-------0-------0-------0-------0---0---0---0---0---0---|
G|--2---2---2---2---2---0---2---2---2---2---2---2---2---2---|
D|------0-------0-------2-------0---------------------------|
A|--------------------------------2---2---2---2---2---2-----|
E|3---3---3---3---3---3---5---5-----------------------------|

 Chorus
e|------------------------------------------------------------------------------|
B|----77777777777777------------------------------------------------------------|
G|999-77777777777777-222-4---4---4-------4---4---6---6----77777777777777-9-9-9--|
D|xxx-xxxxxxxxxxxxxx-xxx---7---7---7-2p0---7---7---7---7--99999999999999-111111-|
A|777-55555555555555-xxx--------------------------------------------------------|
E|-------------------222--------------------------------------------------------|

e|-------------------------------------------------------------------------5/17--|
B|777-888-555-777----------------------------------------------------------------|
G|777-777-777-777-1212121212121212-1111111111111111---2---2---2---2--2~----------|
D|----------------x-x-x-x-x-x-x-x--x-x-x-x-x-x-x-x--4-4-4-4-4-4-4-4--5~----------|
A|----------------1010101010101010-1212121212121212------------------------------|
E|-------------------------------------------------------------------------------|

 Verse X2
e|------------------------------|
B|12+~----7+~----------12+~-----|
G|------------------------------|
D|------------------------------|
A|--------------9+~-------------|
E|------------------------------|

 x1
e|---------------------------5/17--|
B|12+~----7+~----------12+~--------|
G|---------------------------------|
D|---------------------------------|
A|--------------9+~----------------|
E|---------------------------------|

e|------------------------------|
B|12+~----7+~----------12+~-----|
G|------------------------------|
D|------------------------------|
A|--------------9+~-------------|
E|------------------------------|

 Pre-Chorus

 Chorus
Добавлено: 12.06.2012
Другие материалы по этой песне:
  • Аккорды и текст

Страница создана 08.06.2012
http://primanota.ru/johnny-foreigner/every-cloakroom-ever-chords.htm
Привет, Гость.
Предлагаем пройти революционный курс по гитаре.
Подарок от PrimaNota.Ru, забирай!