PrimaNota.ru - самый крупный в мире бесплатный архив песенных текстов, аккордов, табулатур и нот


Johnny Foreigner - Dark Harbourzz - бас-таба, видео

Регистрация Запомнить меня
Войти через:  Facebook Google Twitter Vk Yandex Mail.ru

Johnny Foreigner - Dark Harbourzz - бас-таба, видео

Печатать
Просмотров: 90
Уроки эстрадного вокала в Санкт-Петербурге
-------------------------------------------------------------------------------
	   Dark Harbourzz - Johnny Foreigner
-------------------------------------------------------------------------------

 Tabbed by:dvanwyk
 Email:dustinvanwyk@yahoo.com

 Tuning:Standard

 Intro (0.11)
G|--------------|
D|--------------|
A|5~----55------|
E|--------------|

 Verse x2
G|--------------------2-1---------------|
D|---7-6-----------------------2--------|
A|55----------4----22-----4-44---4------|
E|-------5-55---5-----------------------|

 Pre-Chorus
G|--------------------------------------|
D|--------------44--44------------------|
A|55--55------------------------4-4-----|
E|-------55--55--------55--55-7---------|

 Chorus
G|----------------------------------------------------------------------|
D|-----------------777-666-444-----------------------------7-7---4-4----|
A|5555555555555555-------------------4-7--5555555555555555--------------|
E|-----------------------------555-7------------------------------------|

G|------------------|
D|------------------|
A|5-5-5-5-4-4-4-----|
E|------------------|

 x2
G|------------------------|
D|------------------------|
A|5~----------------------|
E|-----5~----7~----9~-----|

 verse x2

 Pre-Chorus
G|--------------------------------------|
D|--------------44--44------------------|
A|55--55------------------------4-4-----|
E|-------55--55--------55--55-7---------|

G|------------------------------------------------------------------------------|
D|------------------------------------44444444444444----------------------------|
A|5555555555555555-----------------------------------77-------------------4-4---|
E|-----------------555555555555555-77-------------------55555555555-555-7-------|

 x2
G|----------------------------------------------------------------------|
D|-----------------777-666-444-----------------------------7-7---4-4----|
A|5555555555555555-------------------4-7--5555555555555555--------------|
E|-----------------------------555-7------------------------------------|

G|------------------|
D|------------------|
A|5-5-5-5-4-4-4-----|
E|------------------|

 Outro
G|-----------------------------------------------------|
D|-----------------------------7~----------11~---------|
A|5~---------------------------------9~-----------5~---|
E|-----5~----7~----9~----9~----------------------------|
Добавлено: 03.06.2012
Другие материалы по этой песне:
  • Аккорды и текст

Страница создана 03.06.2012
http://primanota.ru/johnny-foreigner/dark-harbourzz-chords.htm
Привет, Гость.
Предлагаем пройти революционный курс по гитаре.
Подарок от PrimaNota.Ru, забирай!