PrimaNota.ru - самый крупный в мире бесплатный архив песенных текстов, аккордов, табулатур и нот


Johnny Foreigner - Custom Scenes And The Parties That Make Them - бас-таба, видео

Регистрация Запомнить меня
Войти через:  Facebook Google Twitter Vk Yandex Mail.ru

Johnny Foreigner - Custom Scenes And The Parties That Make Them - бас-таба, видео

Печатать
Просмотров: 78
-------------------------------------------------------------------------------
     Custom Scenes And The Parties That Make Them - Johnny Foreigner
-------------------------------------------------------------------------------

 Tabbed by:dvanwyk
 Email:dustinvanwyk@yahoo.com

 Tuning:Standard

 Intro
G|--------------------------------------------------|
D|-----------7\----------------------7\-------------|
A|2~----0~-------5~--5/7--2~----0~-------5~--5-4----|
E|--------------------------------------------------|

 x2
G|------------------------|
D|-----------7\-----------|
A|2~----0~-------5~-------|
E|------------------------|

 Verse x2 (0.24)
G|------------99-77-66----99-77-66----------|
D|---------------------77----------77-99----|
A|55--77--99-----------------------------7--|
E|------------------------------------------|

 x1
G|------------99-77-66----99-77-66----------|
D|---------------------77----------99-77----|
A|55--77--99-----------------------------9--|
E|------------------------------------------|

 Post-Chorus
G|------------------------------------------|
D|------------------------------------------|
A|5~--4~--2~-------------------------5~-----|
E|------------5~--00000000-55555555---------|

 Chorus x2
G|--------------------------------------------|
D|--------------------------------------------|
A|9999999999999999-/7777777777777777-(Pause)--|
E|--------------------------------------------|

 Pause

 Verse (1.08)
G|---------99-77-66----99-77-66----------|
D|------------------77----------77-99----|
A|-77--99-----------------------------7--|
E|---------------------------------------|

G|------------99-77-66----99-77-66----------|
D|---------------------77----------77-99----|
A|55--77--99-----------------------------7--|
E|------------------------------------------|

 x1
G|------------99-77-66----99-77-66----------|
D|---------------------77----------99-77----|
A|55--77--99-----------------------------9--|
E|------------------------------------------|

 Post-Chorus

 Chorus x2


 Bridge x4
G|------------------------------------------|
D|------------------7777--------------------|
A|22222222-00000000------5555555555555555---|
E|------------------------------------------|

 x4
G|------------------------|
D|-----------7\-----------|
A|2~----0~-------5~-------|
E|------------------------|

 x4
G|---------------------------------------------|
D|-----44-22----------7777---------------------|
A|2222-------00000000------55555555555555555---|
E|---------------------------------------------|

G|----------|
D|----------|
A|----------|
E|5---------|
Добавлено: 02.05.2012
Другие материалы по этой песне:
  • Аккорды и текст

Страница создана 02.05.2012
http://primanota.ru/johnny-foreigner/custom-scenes-and-the-parties-that-make-them-chords.htm
Привет, Гость.
Предлагаем пройти революционный курс по гитаре.
Подарок от PrimaNota.Ru, забирай!