PrimaNota.ru - самый крупный в мире бесплатный архив песенных текстов, аккордов, табулатур и нот


Johnny Foreigner - Choose Yr Side And Shut Up - бас-таба, видео

Регистрация Запомнить меня
Войти через:  Facebook Google Twitter Vk Yandex Mail.ru

Johnny Foreigner - Choose Yr Side And Shut Up - бас-таба, видео

Печатать
Просмотров: 102
-------------------------------------------------------------------------------
	      Choose Yr Side And Shut Up! - Johnny Foreigner
-------------------------------------------------------------------------------

 Tabbed by:dvanwyk
 Email:dustinvanwyk@yahoo.com

 Tuning:Standard

 Intro/Verse x2
G|------------------------------------------|
D|------------------------------------------|
A|--------------------5-55-/9-99-2-22-5-55--|
E|5-55-2-0--2-22-2-0------------------------|

 Verse x2

 Chorus
G|--------------------------------------------------------------------|
D|--------------------------------------------------------------------|
A|44-44-4-55-55-5-22-22-2-55-55-5--44-44-4-55-55-5-22-22-2-5555-7777--|
E|--------------------------------------------------------------------|

 Verse x1

G|--------|
D|--------|
A|--------|
E|5\------|

 Pause

G|-------------------------|
D|-------------------------|
A|5-55-/9-99-2-22-5-55-----|
E|-------------------------|

 Verse x1

G|--------|
D|--------|
A|--------|
E|5\------|

 Pause

G|-------------------------|
D|-------------------------|
A|5-55-/9-99-2-22-5-55-----|
E|-------------------------|

 x2
G|-------------------------------------|
D|-------------------------------------|
A|44444444-55555555-22222222-55555555--|
E|-------------------------------------|

G|--------------------|
D|--------------------|
A|5~----2~------------|
E|------------3~------|
Добавлено: 21.02.2012
Другие материалы по этой песне:
  • Аккорды и текст

Страница создана 21.02.2012
http://primanota.ru/johnny-foreigner/choose-yr-side-and-shut-up-chords.htm
Привет, Гость.
Предлагаем пройти революционный курс по гитаре.
Подарок от PrimaNota.Ru, забирай!