PrimaNota.ru - самый крупный в мире бесплатный архив песенных текстов, аккордов, табулатур и нот


Johnny Crash - Hey Kid - таба, видео

Регистрация Запомнить меня
Войти через:  Facebook Google Twitter Vk Yandex Mail.ru

Johnny Crash - Hey Kid - таба, видео

Печатать
Просмотров: 99
As recorded by Johnny Crash
                   (From the 1990 Album NEIGHBOURHOOD THREAT)

Words and Music by Christoper Stewart, August Worchell, and Vicki James Wright
Transcribed by Ibanez87

Gtr I (E A D G B E) - 'Rhythm (August)'
Gtr II (E A D G B E) - 'Rythym (Christopher)'
Gtr III (E A D G B E) - 'Lead (August)'

 Intro
  Q=138
  G5
 4/4
  Gtr I
  Q  E E E E Q    Q  E E E Q.     Q  E E E E Q    Q  E E E Q.
|---------------|---------------|---------------|----------------|
|---------------|---------------|---------------|----------------|
|-0--0-3-0-3-0--|-5--5-3-7-3----|-0--0-3-0-3-0--|-5--5-5-3-3-----|
|-0--0-3-0-3-0--|-5--5-3-7-3----|-0--0-3-0-3-0--|-5--5-5-3-3-----|
|---------------|---------------|---------------|----------------|
|---------------|---------------|---------------|----------------|


                                                       C5   Bb5
  Q  E E E E Q     Q   E E E Q.      Q   E E E E Q     H    H
|---------------|-----------------|------------------|-----------|
|---------------|-----------------|------------------|-----------|
|-0--0-3-0-3-0--|--5---5-3-7-3----|--0---0-3-0-3-0---|-5----3----|
|-0--0-3-0-3-0--|--5---5-3-7-3----|--0---0-3-0-3-0---|-5----3----|
|---------------|-----------------|------------------|-----------|
|---------------|-----------------|------------------|-----------|
|
| Gtr II
| W               +W                +Q   E E E E E E   H    H
|---------------|-----------------|------------------|-----------|
|---------------|-----------------|------------------|-----------|
|---------------|-----------------|------------------|-5----3----|
|-5-------------|-(5)-------------|-(5)--5-5-5-5-5-5-|-5----3----|
|-5-------------|-(5)-------------|-(5)--5-5-5-5-5-5-|-3----1----|
|-3-------------|-(3)-------------|-(3)--3-3-3-3-3-3-|-----------|


  G5
  Gtrs I, II
  Q  E E E E Q    Q  E E E Q.     Q  E E E E Q    Q  E E E Q.
|---------------|---------------|---------------|---------------|
|---------------|---------------|---------------|---------------|
|-0--0-3-0-3-0--|-5--5-3-7-3----|-0--0-3-0-3-0--|-5--5-5-3-3----|
|-0--0-3-0-3-0--|-5--5-3-7-3----|-0--0-3-0-3-0--|-5--5-5-3-3----|
|---------------|---------------|---------------|---------------|
|---------------|---------------|---------------|---------------|


                                                  C5   Bb5
  Q  E E E E Q    Q  E E E Q.     Q  E E E E Q    H    H
|---------------|---------------|---------------|-----------|
|---------------|---------------|---------------|-----------|
|-0--0-3-0-3-0--|-5--5-3-7-3----|-0--0-3-0-3-0--|-5----3----|
|-0--0-3-0-3-0--|-5--5-3-7-3----|-0--0-3-0-3-0--|-5----3----|
|---------------|---------------|---------------|-----------|
|---------------|---------------|---------------|-----------|


   Verse
    G5                                          Em   F#m
    q  q  E q  E   q  q  E q  E   q  q  E q  E   H    H
||---------------|--------------|--------------|------------|
||o--------------|--------------|--------------|------------|
||---------------|--------------|--------------|-0----2-----|
||--5--5--x-5--x-|-5--5--x-5--x-|-5--5--x-5--x-|-2----4-----|
||o-5--5--x-5--x-|-5--5--x-5--x-|-5--5--x-5--x-|------------|
||--3--3--x-3--x-|-3--3--x-3--x-|-3--3--x-3--x-|------------|

   G5                                          Em   F#m
   q  q  E q  E   q  q  E q  E   q  q  E q  E   H    H
|---------------|--------------|--------------|------------|
|---------------|--------------|--------------|------------|
|---------------|--------------|--------------|-0----2-----|
|--5--5--x-5--x-|-5--5--x-5--x-|-5--5--x-5--x-|-2----4-----|
|--5--5--x-5--x-|-5--5--x-5--x-|-5--5--x-5--x-|------------|
|--3--3--x-3--x-|-3--3--x-3--x-|-3--3--x-3--x-|------------|

    G5                                          Em     F/C
    q  q  E q  E   q  E q  E E E   q  q  E q  E   E E Q H
|---------------|---------------|--------------|----------------|
|---------------|---------------|--------------|-----0--1-------|
|---------------|---------------|--------------|---0----2-------|
|--5--3--3-5----|-5--5-3--3s5---|-5--3--3-5--x-|-2------3-------|
|--5--3--3-5----|-5--5-3--3s5---|-5--3--3-5--x-|--------3-------|
|--3--1--1-3----|-3--3-1--1s3---|-3--1--1-3--x-|----------------|

   G5                                           Em    F#m
   q  q  E q  E   q  E q  E E E   q  q  E q  E  H      H
|---------------|---------------|--------------|-------------|
|---------------|---------------|--------------|-------------|
|---------------|---------------|--------------|-0------2----|
|--5--3--3-5----|-5--5-3--3s5---|-5--3--3-5--x-|-2------4----|
|--5--3--3-5----|-5--5-3--3s5---|-5--3--3-5--x-|-------------|
|--3--1--1-3----|-3--3-1--1s3---|-3--1--1-3--x-|-------------|


  W          q  Q  E E E E
|----------|---------------|
|----------|---------------|
|-5--------|-3--5--5-5-5-5-|
|-5--------|-3--5--5-5-5-5-|
|-3--------|-1--3--3-3-3-3-|
|----------|---------------|

   Chorus
 (G5)
  Q  E E E E Q    Q  E E E Q.     Q  E E E E Q    Q  E E E Q.
|---------------|---------------|---------------|---------------|
|---------------|---------------|---------------|---------------|
|-0--0-3-0-3-0--|-5--5-3-7-3----|-0--0-3-0-3-0--|-5--5-5-3-3----|
|-0--0-3-0-3-0--|-5--5-3-7-3----|-0--0-3-0-3-0--|-5--5-5-3-3----|
|---------------|---------------|---------------|---------------|
|---------------|---------------|---------------|---------------|


                                                  C5   Bb5
  Q  E E E E Q    Q  E E E Q.     Q  E E E E Q    H    H
|---------------|---------------|---------------|-----------||
|---------------|---------------|---------------|----------o||
|-0--0-3-0-3-0--|-5--5-3-7-3----|-0--0-3-0-3-0--|-5----3----||
|-0--0-3-0-3-0--|-5--5-3-7-3----|-0--0-3-0-3-0--|-5----3----||
|---------------|---------------|---------------|-3----1---o||
|---------------|---------------|---------------|-----------||

I don't know the solo, I'll get it soon, but for most part it is in G minor penatonic 
and an added major 3rd. Have fun!

ENDING:
  H    H      H    H      W
|-----------|-----------|----------*|
|-----------|-----------|-3--------*|
|-5----3----|-5----3----|-0--------*|
|-5----3----|-5----3----|-0--------*|
|-3----1----|-3----1----|----------*|
|-----------|-----------|-3--------*|


Duration Legend
---------------
W - whole; H - half; Q - quarter; E - 8th; S - 16th; T - 32nd; X - 64th; a - acciaccatura
+ - note tied to previous; . - note dotted; .. - note double dotted


Misc Legend
-----------
 |  - bar
||  - double bar
||o - repeat start
o|| - repeat end
*|  - double bar (ending)
 :  - bar (freetime)
 $  - Segno
 &  - Coda
Tempo markers -  = BPM(8/16=s8/s16), where s8 = swing 8ths, s16 = swing 16ths


Check out Johnny Crash at http://www.youtube.com/view_play_list?p=110EEAD0CF97E8EC
Добавлено: 30.05.2012
Вам также может быть интересно:
Другие материалы по этой песне:
  • Аккорды и текст

Страница создана 30.05.2012
http://primanota.ru/johnny-crash/hey-kid-chords.htm
Привет, Гость.
Предлагаем пройти революционный курс по гитаре.
Подарок от PrimaNota.Ru, забирай!