PrimaNota.ru - самый крупный в мире бесплатный архив песенных текстов, аккордов, табулатур и нот


Johnny Copeland - Flying High Live - таба, видео

Регистрация Запомнить меня
Войти через:  Facebook Google Twitter Vk Yandex Mail.ru

Johnny Copeland - Flying High Live - таба, видео

Печатать
Просмотров: 80
http://www.allmusic.com/artist/johnny-copeland-mn0000817542

it's not 100% accurate i'm aware of that,
but it nails the main spirit of the song.

this is my first tablature,
and first try on learning a song without tabs or tut.
it was easy though thanks to the electrifying performance of the great Johnny Copland.



it's a blues in E

e|---------------------------------------------------------------------|
B|---------------------------------------------------------------2-----|
G|---------------------------------------------------------------2-----|
D|---------------------------------------------------------------------|
A|--2---2------------4----2---------------5----5-----------0h4---------|
E|--0---0------------0----0---------------0----0-----------0-----------|  X4

e|---------------------------------------------------------------2-----|
B|---------------------------------------------------------------2-----|
G|---------------------------------------------------------------------|
D|--2---2------------4----2---------------5----5-----------0h4---------|
A|--0---0------------0----0---------------0----0-----------0-----------|
E|---------------------------------------------------------------------|  X2

e|---------------------------------------------------------------------|
B|---------------------------------------------------------------2-----|
G|---------------------------------------------------------------2-----|
D|---------------------------------------------------------------------|
A|--2---2------------4----2---------------5----5-----------0h4---------|
E|--0---0------------0----0---------------0----0-----------0-----------|  X2


e|-0--x----2---2----x----0----x---2---2----x----0---x------------------|
B|-0--x----x---x----x----0----x---x---x----x----0---x------------------|
G|-0--x----2---2----x----0----x---2---2----x----0---x------------------|
D|-0--x----1---1----x----0----x---1---1----x----0---x------------------|
A|-0--x----2---2----x----0----x---2---2----x----0---x------------------|
E|-0--x-------------x----0----x------------x----0---x------------------|


e|-----3---3----x----0----x---3---3----x----0---0----------------------|
B|-----2---2----x----0----x---2---2----x----0---0----------------------|
G|-----2---2----x----0----x---2---2----x----0---0----------------------|
D|-----2---2----x----0----x---2---2----x----0---0----------------------|
A|--------------x----0----x------------x----0---0----------------------|
E|--------------x----0----x------------x----0---0----------------------|

e|---------------------------------------------------------------------|
B|---------------------------------------------------------------2-----|
G|---------------------------------------------------------------2-----|
D|---------------------------------------------------------------------|
A|--2---2------------4----2---------------5----5-----------0h4---------|
E|--0---0------------0----0---------------0----0-----------0-----------|


turn around
e|------------0--x------2---x---2---x----------------------------------|
B|------------0--x------x---x---x---x----------------------------------|
G|------------0--x------2---x---x---x----------------------------------|
D|------------0--x------1---x---1---x----------------------------------|
A|--2---2-----0--x------2---x---2---x----------------------------------|
E|--0---0-----0--x-----------------------------------------------------|


than back to the start, same 12 bar progression.




solo part:

e|------------------------------------------------------0-----0--------|
B|----------------2s3-3----2s3-3------------------------0-----0--------|
G|----0-2-0-------3s4-4----3s4-4-----------4s2p0--------0h1---1--------|
D|--2-----------------------------------------------2---2--------------|
A|------------------------------------------------------2--------------|
E|------------------------------------------------------0--------------| X4

e|---------------------------------------------------------------------|
B|-------------------------------------------------------2b-0h2-0------|
G|---------------------------------------------------------------------|
D|--2---2------------4----2---------------5----5-----------------------|
A|--0---0------------0----0---------------0----0-----------------------|
E|---------------------------------------------------------------------| X2


e|---------------------------------------------------------------------|
B|-------------------------------------------------------2b-0h2-0------|
G|---------------------------------------------------------------------|
D|---------------------------------------------------------------------|
A|--2---2------------4----2---------------5----5-----------------------|
E|--0---0------------0----0---------------0----0-----------------------|

e|--0-----0------------------------------------------------------------|
B|--0-----0------------------------------------------------------2-----|
G|--0h1---1------------------------------------------------------2-----|
D|--2------------------------------------------------------------------|
A|--2----------------4----2---------------5----5-----------0h4---------|
E|--0----------------0----0---------------0----0-----------0-----------|



e|-----2----x---x---x---0---x--------2-----x-----x----0----x-------|
B|-----x----x---x---x---0---x--------x-----x-----x----0----x-------|
G|-----2----x---x---x---0---x--------2-----x-----x----0----x-------|
D|-----1----x---x---x---0---x--------1-----x-----x----0----x-------|
A|-----2----x---x---x---0---x--------2-----x-----x----0----x-------|
E|----------x---x---x---0---x--------------x-----x----0----x-------|

e|-----3---3----x----0----x---------3---3----x----0----0-----------|
B|-----2---2----x----0----x---------2---2----x----0----0-----------|
G|-----2---2----x----0----x---------2---2----x----0----0-----------|
D|-----2---2----x----0----x---------2---2----x----0----0-----------|
A|--------------x----0----x------------------x----0----0-----------|
E|--------------x----0----x------------------x----0----0-----------|


e|-----------------------------------------0-----0---------2--------|
B|--------2s3-3-----2s3-3------------------0-----0---------x--------|
G|--------3s4-4-----3s4-4-------4s2p0------0h1---1---------2--------|
D|-------------------------------------2---2---------------1--------|
A|-2--2------------------------------------2-----------0-1-2--------|
E|-0--0------------------------------------0------------------------|





ending:

after the b7 he hit a7 one time and mute it

e|-----2----x---x---x---0---x--------2-----x-----x----0----x-------|
B|-----x----x---x---x---0---x--------x-----x-----x----0----x-------|
G|-----2----x---x---x---0---x--------2-----x-----x----0----x-------|
D|-----1----x---x---x---0---x--------1-----x-----x----0----x-------|
A|-----2----x---x---x---0---x--------2-----x-----x----0----x-------|
E|----------x---x---x---0---x--------------x-----x----0----x-------|

e|-----3-----------------------------------------------------------|
B|-----2-----------------------------------------------------------|
G|-----2-----------------------------------------------------------|
D|-----2-----------------------------------------------------------|
A|-----------------------------------------------------------------|
E|-----------------------------------------------------------------|


e|-0----------4------------3-------------2-------------0-----------|
B|-0---------------------------------------------------0-----------|
G|-1----2s4-------4----3-------3----2---------2--------0h1---------|
D|-2---------------------------------------------------------------|
A|-2---------------------------------------------------------------|
E|-0---------------------------------------------------------------|



e|-----8-----777777777777777777777777777----------7s>--------------|
B|-----8-----777777777777777777777777777----------7s>--------------|
G|-----8-----777777777777777777777777777----------7s>--------------|
D|-----7-----666666666666666666666666666----------6s>--------------|
A|-----8-----777777777777777777777777777----------7s>--------------|
E|-----------------------------------------------------------------|




keep in mind, all the muting stuff it's a matter of feel.
you can just stay with the chord if you like,
or not hitting at all on those parts.
but the rhythm just makes you keep strumming.




 Lyrics:


here i sit  in this room, me and my guitar and the blues
seem like yesterday, everything was goin my way
no one could have told me
i'll be sittin here singing  the blues today

i was flying high,            ***            ***
woke up one morning, i couldn't fly no more
but it seems like yesterday everything was goin my way
no one could have told me
i'll be sittin here singing  the blues today 

i was flying high,            ***            ***
woke up one morning, i couldn't fly no more
but it seems like yesterday everything was goin my way
no one could have told me
i'll be sittin here singing  the blues today 


somebody tell me what a man to do
when the world as took from him
everything but the blues
seem like yesterday everything was goin my way
no one could have told me
i'll be sittin here singing  the blues today


now i'm moving from state to state
every time i eat i can break my plate
but it seems like yesterday everything was goin my way-ay
no one could have told me
aaaaaai'll  be sittin here singing  the bluuuuuuueees today.




Enjoy !
Добавлено: 16.10.2013
Другие материалы по этой песне:
  • Аккорды и текст

Страница создана 16.10.2013
http://primanota.ru/johnny-copeland/flying-high-live-chords.htm
Привет, Гость.
Предлагаем пройти революционный курс по гитаре.
Подарок от PrimaNota.Ru, забирай!