PrimaNota.ru - самый крупный в мире бесплатный архив песенных текстов, аккордов, табулатур и нот


Johnny Cash - Im Gonna Sit On The Porch And Pick On My Old Guitar - текст песни, таба, видео

Регистрация Запомнить меня
Войти через:  Facebook Google Twitter Vk Yandex Mail.ru

Johnny Cash - Im Gonna Sit On The Porch And Pick On My Old Guitar - текст песни, таба, видео

Печатать
Просмотров: 149
I've never made a tab before, but this sounds pretty close to how it goes to me.  At 
it's something to work off of.  The verse uses a lot of the same notes as the intro, listen 
the song for the timing, good luck!

Standard Tuning EADGBE:

INTRO
E--------------------------------------------------|
B-----------0/2/0----------------------------------|
G--0-0------------0----0-----------------------0---|
D--2-3-5----------2----2-----------------------2---|
A------------------------5-3----5-3--------3-5-----|
E-----------------------------------5--------------|

E--------------------------|
B--------------------------|
G--0-0-------0-------------|
D--3-2-------2-------------|
A------5-------5-3-----3---|
E--------------------3-----|...

I'm gonna sit on my porch and pick on my old guitar
I'm gonna lay on my back and laugh at my lucky star
And then I'm gonna fly away and never come back someday
Unless I thought I was gonna land right close to where you are

Well if I thought anybody cared I'd send back word
Strapped to the leg of a transcelestial bird
I wonder if I really ever did leave
how many would there be to grieve
How would they react to the word


INTERLUDE BETWEEN VERSES
E--------------------------------------------------|
B-----------0/2/0----------------------------------|
G--0-0------------0----0-----------------------0---|
D--2-3-5----------2----2-----------------------2---|
A------------------------5-3----5-3--------3-5-----|
E-----------------------------------5--------------|

E--------------------------|
B--------------------------|
G--0-0------2--------------|
D--2-3-5------5------------|
A---------------5----0-1-2-|
E--------------------------|

E--------------------------------------------------|
B-----------0/2/0----------------------------------|
G--0-0------------0----0-----------------------0---|
D--2-3-5----------2----2-----------------------2---|
A------------------------5-3----5-3--------3-5-----|
E-----------------------------------5--------------|

E--------------------------|
B--------------------------|
G--0-0-------0-------------|
D--3-2-------2-------------|  (REPEAT INTERLUDE ONCE
A------5-------5-3-----3---|     BEFORE NEXT VERSE)
E--------------------3-----|

Well I wouldn't ever want to hurt a solitary soul
I have still got all 6'2 in control
But when my obligation's low is a greasy uphill road
And pleasin' everybody but me is my first goal
I want to sit on my porch and pick on my ol' guitar
And just hope your hangin' loose where ever you are
And for the joy you brought to me
this song I sung for thee
While I sit on my porch and pick on my ol' guitar


FINISH BY PLAYING THE INTERLUDE TWICE AGAIN
E--------------------------------------------------|
B-----------0/2/0----------------------------------|
G--0-0------------0----0-----------------------0---|
D--2-3-5----------2----2-----------------------2---|
A------------------------5-3----5-3--------3-5-----|
E-----------------------------------5--------------|

E--------------------------|
B--------------------------|
G--0-0------2--------------|
D--2-3-5------5------------|
A---------------5----0-1-2-|
E--------------------------|

E--------------------------------------------------|
B-----------0/2/0----------------------------------|
G--0-0------------0----0-----------------------0---|
D--2-3-5----------2----2-----------------------2---|
A------------------------5-3----5-3--------3-5-----|
E-----------------------------------5--------------|

E--------------------------|
B--------------------------|
G--0-0-------0-------------|
D--3-2-------2-------------|  (REPEAT ONCE)
A------5-------5-3-----3---|
E--------------------3-----|

Enjoy!
Добавлено: 05.03.2012
Другие материалы по этой песне:
  • Аккорды и текст

Страница создана 05.03.2012
http://primanota.ru/johnny-cash/im-gonna-sit-on-the-porch-and-pick-on-my-old-guitar-chords.htm
Привет, Гость.
Предлагаем пройти революционный курс по гитаре.
Подарок от PrimaNota.Ru, забирай!