PrimaNota.ru - самый крупный в мире бесплатный архив песенных текстов, аккордов, табулатур и нот


John Zorn - Gevurah - таба, видео

Регистрация Запомнить меня
Войти через:  Facebook Google Twitter Vk Yandex Mail.ru

John Zorn - Gevurah - таба, видео

Печатать
Просмотров: 152
John Zorn
Gevurah

The whole song is in F harmonic minor (eolian with major seven), but when 
Ribot is soloing, he plays on the chromatic too.

I've used versions from 
Circle Maker cd2
Warsaw Summer Jazz Days '99 http://www.youtube.com/watch?v=Ajl28OdWqtc

lateralus2@o2.pl

That's the main theme (all double stops and chords are arpeggiated):
 
E|--12h13p12----12----|--13h15p13----13----|--12h13p12----12----|----|
B|--13-------13-------|--14-------14-------|--13-------13-------|----|
G|--------------------|--------------------|--------------------|----|
D|--------------------|--------------------|--------------------|----|
A|--------------------|--------------------|--------------------|----|
E|--------------------|--------------------|--------------------|----|
 
E|----------12--13--|--15--16--16p15--13--|--15-13-12--12-----|-------|
B|----13-14---------|--14-----------------|----------------13//14-----|
G|------------------|---------------------|-------------------|-------|
D|------------------|---------------------|-------------------|-------|
A|------------------|---------------------|-------------------|-------|
E|------------------|---------------------|-------------------|-------|

E|------------12--13--|--15--16//19--16--|--15------|------|
B|------13-14---------|--14--------------|--17------|--13--|
G|--12----------------|------------------|----------|------|
D|--------------------|------------------|----------|------|
A|--------------------|------------------|----------|------|
E|--------------------|------------------|----------|------|

E|------------12--13--|--15--13-12-13--12-----|--12-15-13-12-13--13----|----|
B|------13-14---------|--14---------------14--|--13--------------14----|----|
G|--12----------------|-----------------------|------------------------|----|
D|--------------------|-----------------------|------------------------|----|
A|--------------------|-----------------------|------------------------|----|
E|--------------------|-----------------------|------------------------|----|

E|--12--20-19--16--15--|--13--15--19p16-15-----|--16p15----|----|
B|--13-----------------|--14---------------17--|--17-------|----|
G|---------------------|-----------------------|-----------|----|
D|---------------------|-----------------------|-----------|----|
A|---------------------|-----------------------|-----------|----|
E|---------------------|-----------------------|-----------|----|
                                                                     cello
E|---------------|---------------|---------------|-----------------|
B|---------------|------------6--|---------------|-----------------|
G|--5---5-----5--|--3---3--------|--5---5-----5--|--3---3-----6p5--|
D|--5---5--------|--3---3--------|--5---5--------|--3---3----------|
A|--7---7--------|--5---5--------|--7---7--------|--5---5----------|
E|---------------|---------------|---------------|-----------------|...

the rest is improvisation, it's easy to get those solos by Ribot knowing the 
key, however, making your own needs really mad skills :) Good luck and enjoy!
Добавлено: 18.06.2012
Другие материалы по этой песне:
  • Аккорды и текст

Страница создана 18.06.2012
http://primanota.ru/john-zorn/gevurah-chords.htm
Привет, Гость.
Предлагаем пройти революционный курс по гитаре.
Подарок от PrimaNota.Ru, забирай!