PrimaNota.ru - самый крупный в мире бесплатный архив песенных текстов, аккордов, табулатур и нот


John Zacherle - Dinner With Drac - таба, видео

Регистрация Запомнить меня
Войти через:  Facebook Google Twitter Vk Yandex Mail.ru

John Zacherle - Dinner With Drac - таба, видео

Печатать
Просмотров: 58
-------------------------------------------------------------------------------
                             DINNER WITH DRAC - John Zacherle
-------------------------------------------------------------------------------
Tabbed by: Alexander Angelico


Tuning: EADGBe

e|--1/2-5-5-5-5--5b5b5b5b5b5b5b5b\2-22-5-------------------------------------|
B|--1/2-5-5-5-5--5b5b5b5b5b5b5b5b\2-22-5-2h5p2------------2-2----------------|
G|---------------------------------------------44-4b-2----2-2----------------|
D|-----------------------------------------------------4---------------------|
A|---------------------------------------------------------------------------|
E|---------------------------------------------------------------------------|

e|-1/2-2-5-------------------------------------------------------------------|
B|-1/2-2-5-2h5p2-----------2-2-----------------------------------------------|
G|---------------44-4b-2---2-2-----------------------------------------------|
D|-----------------------4---------------------------------------------------|
A|---------------------------------------------------------------------------|
E|---------------------------------------------------------------------------|


Repeat throughout. Still working out chorus.

************************************

| /   slide up
| \   slide down
| h   hammer-on
| p   pull-off
| ~   vibrato
| +   harmonic
| x   Mute note
| b   Bend
| pb  Pre-bend
| br  Bend release
| pbr Pre-bend release
| brb Bend release bend

************************************
Добавлено: 18.05.2016
Другие материалы по этой песне:
  • Аккорды и текст

Страница создана 18.05.2016
http://primanota.ru/john-zacherle/dinner-with-drac-chords.htm
Привет, Гость.
Предлагаем пройти революционный курс по гитаре.
Подарок от PrimaNota.Ru, забирай!