PrimaNota.ru - самый крупный в мире бесплатный архив песенных текстов, аккордов, табулатур и нот


John Williams - Triangular Situations - таба, видео

Регистрация Запомнить меня
Войти через:  Facebook Google Twitter Vk Yandex Mail.ru

John Williams - Triangular Situations - таба, видео

Печатать
Просмотров: 139
                         TRIANGULAR SITUATIONS
                                             Vasco Martins   John Williams
This song is for 2/3 guitars.

First i'll show you the the backing for the first guitar. 

Guitar 1 :

E|--------------------------------0---------------------0----------|
B|--11-11-33-33-33-33-11-11-------0-------33-33--33-11-0-----------|
G|--22-22-22-22-11-11-22-22-------0-------22-22--22-22-1-----------|
D|----------------------------------0--2---------------------------|
A|-0-----2-----------0--------0-2-3-------------2--0---------------|
E|----3-----1--0--0-----3---3-------------1--1---------4--0--------|      x2


E|--------------------------------0---------------------0----------|
B|--11-11-33-33-33-33-11-11-------0-------33-33--33-11-0-----------|
G|--22-22-22-22-11-11-22-22-------0-------22-22--22-22-1-----------|
D|----------------------------------0--2---------------------------|
A|-0-----2-----------0--------0-2-3-------------2--0--2------------|
E|----3-----1--0--0-----3---3-------------1--1------------0--------|


E|----------------------------01-------------------------------------|
B|--11-11-33-33-33-33-11-11--3---33--00--0-33-3-----11---------------|
G|--22-22-22-22-11-22-22-22-2----22--22-2--11-1-----22---------------|
D|-------------------------0-----------1-----------------------------|
A|-0-----2--2-----2--0----------3---2--2-----------0--0--------------|
E|----3--------0--------3-----------------0--2--4--------------------|


now that's as far as i'll go for the backing guitar

Guitar 2 :


E|--3--1--0-----0--0-----1--0-----0--1--0-------------------------0-|
B|-----------1--------3--------3-----------3--1----3--1--0--1--3----|
G|------------------------------------------------------------------|
D|------------------------------------------------------------------|
A|------------------------------------------------------------------|
E|------------------------------------------------------------------|


E|--1--3--3----8--7--5--------3--1--0-----0----1--0----------------|
B|----------------------4--5-----------3-------------3--1--3-------|
G|-----------------------------------------------------------------|
D|-----------------------------------------------------------------|
A|-----------------------------------------------------------------|
E|-----------------------------------------------------------------|


E|--1--0------------1--0------------0------------------------------|
B|--------3--1--3---------3--1--3-------3--1--0--1-----------------|
G|-----------------------------------------------------------------|
D|-----------------------------------------------------------------|
A|-----------------------------------------------------------------|
E|-----------------------------------------------------------------|


E|-----11111-00000---------1--0------------------------------------|
B|-----------------33333---------3--1--3----1--0-------------------|
G|------------------------------------------------2----------------|
D|-----------------------------------------------------------------|
A|-----------------------------------------------------------------|
E|-----------------------------------------------------------------|
Добавлено: 28.07.2013
Другие материалы по этой песне:
  • Аккорды и текст

Страница создана 28.07.2013
http://primanota.ru/john-williams/triangular-situations-chords.htm
Привет, Гость.
Предлагаем пройти революционный курс по гитаре.
Подарок от PrimaNota.Ru, забирай!