PrimaNota.ru - самый крупный в мире бесплатный архив песенных текстов, аккордов, табулатур и нот


John Williams - Star Wars Vi - Victory Celebration - таба, видео

Регистрация Запомнить меня
Войти через:  Facebook Google Twitter Vk Yandex Mail.ru

John Williams - Star Wars Vi - Victory Celebration - таба, видео

Печатать
Просмотров: 227
NOTE: This is the piece found during the victory celebration in the Ewok village at the end of Episode VI. This
is the rendition from the 1997 SPECIAL EDITION RE-RELEASE!!!

This piece is written as a moderate samba played at a moderate pace in the Key of C.

    Q Q   HQ. S S   Q. S S Q. E   Q. E  H   Q q E Q E   HQ. S S   Q. S S Q. E    W      Q q E Q E
e|------|---------|-------------|---------|-----------|---------|-------------|-------|-----------|
B|----5-|---------|-------------|----5----|---------5-|---------|-------------|-------|---------5-|
G|------|-7---5-4-|-5--4---4----|---------|-----------|-7---5-4-|-5--4---4----|-------|-----------|
D|--7---|---------|------7------|-7----(7-|-7)----7---|---------|------7------|-(7----|-7)----7---|
A|------|---------|-----------5-|---------|-----7-----|---------|-----------5-|-------|-----7-----|
E|------|---------|-------------|---------|-----------|---------|-------------|-------|-----------|
    mezzo piano

   S S HE e S S   Q. S S Q. S S    W      H e E E E   H  H    H  e E Q E   Q Q Q Q   S S Q. E E E E   H  H
e|--------------|---------------|-------|-----------|-5-----|------------|-5-------|----------------|-5-----|
B|--------------|---------------|-------|---------5-|----8--|-5--------5-|---8-5---|--------------5-|----8--|
G|-4-5-7----5-4-|-5--4---4--7-5-|-------|-------5---|-------|--------5---|-------7-|-7-5-4------5---|-------|
D|--------------|------7--------|-(7----|-7)--7-----|-------|------7-----|---------|--------7-7-----|-------|
A|--------------|---------------|-------|-----------|-------|------------|---------|----------------|-------|
E|--------------|---------------|-------|-----------|-------|------------|---------|----------------|-------|
                                             mezzo forte

   H  e E E E   Q Q Q Q   E HQ.    W      Q q E Q E   HQ. S S   Q. S S Q. E   Q. E  H    Q q E Q E
e|------------|---------|-------|-------|-----------|---------|-------------|----------|-----------|
B|-5--------5-|-6-5-----|-------|-------|---------5-|---------|-------------|----5-----|---------5-|
G|--------5---|-----7-5-|-7-4---|-------|-------5---|-7---5-4-|-5--4---4----|----------|-----------|
D|------7-----|---------|-------|-(7----|-7)--7-----|---------|------7------|-7----(7--|-7)----7---|
A|------------|---------|-------|-------|-----------|---------|-----------5-|----------|-----7-----|
E|------------|---------|-------|-------|-----------|---------|-------------|----------|-----------|

   S S HE e S S   Q. S S Q  E E  W      q Q Q Q    H  H    H e E E E   Q Q Q Q   E Q. E E E E   H  H 
e|--------------|--------------|------|---------||-5-----|-----------|---------|--------------|-5-----|
B|--------------|--------------|------|-------5-||----8--|-5-------5-|-6-5-----|------------5-|----8--|
G|-4-5-7----5-4-|-5--4---4-7-5-|------|-----5---||.------|-------5---|-----7-5-|-7-5------5---|-------|
D|--------------|------7-------|-7----|---7-----||.------|-----7-----|---------|------7-7-----|-------|
A|--------------|--------------|------|---------||-------|-----------|---------|--------------|-------|
E|--------------|--------------|------|---------||-------|-----------|---------|--------------|-------|

   H e E E E   Q Q Q Q   E Q. E E E E     E Q. q   E Q. e E E E   Q Q Q Q   W      H  Q e S S   H. e S S
e|-----------|---------|---------------||--------|--------------|-5-7-5-7-|-8----|-10-8---5-7-|-8----5-7-|
B|-5-------5-|-6-5-----|------------5--||--------|-8-5--------5-|---------|------|------------|----------|
G|-------5---|-----7-5-|-7-4------5---.||-7-4----|----------5---|---------|------|------------|----------|
D|-----7-----|---------|------7-7-----.||--------|--------7-----|---------|------|------------|----------|
A|-----------|---------|---------------||--------|--------------|---------|------|------------|----------|
E|-----------|---------|---------------||--------|--------------|---------|------|------------|----------| 
                                                                            >                   

   Q Q Q q
e|---------|
B|---------|
G|-5-4-5---|
D|---------|
A|---------|
E|---------|
       >

NOTE: When you get to the end of the repeat bars the second time, skip over the last measure before the last
repeat bar and go to the second ending starting after the second repeat bar.

Alright, here is an explanation of the terms:

mezzo piano = play medium-soft
mezzo forte = play medium-loud

> = accent mark (play that note with more force than the other notes in the measure)

( ) = tie (add notes in the parentheses up and play as one [i.e. if it's a whole note and quarter note, hold
for five beats])

S = sixteenth note
E = eighth note
Q = quarter note
Q. = dotted quarter note
H = half note
HE = half note and eighth note combined
HQ. = half note and dotted quarter note combined
W = whole note

e = eighth rest
q = quarter rest

That's it. Please comment/rate--God bless!

-Romans 10:9-10;13
Добавлено: 08.05.2015
Другие материалы по этой песне:
  • Аккорды и текст

Страница создана 08.05.2015
http://primanota.ru/john-williams/star-wars-vi-victory-celebration-chords.htm
Привет, Гость.
Предлагаем пройти революционный курс по гитаре.
Подарок от PrimaNota.Ru, забирай!