PrimaNota.ru - самый крупный в мире бесплатный архив песенных текстов, аккордов, табулатур и нот


John Williams - Star Wars - Reys Theme - таба, видео

Регистрация Запомнить меня
Войти через:  Facebook Google Twitter Vk Yandex Mail.ru

John Williams - Star Wars - Reys Theme - таба, видео

Печатать
Просмотров: 151
-------------------------------------------------------------------------------
                             Rey's Theme - John Williams
-------------------------------------------------------------------------------

Tuning: Standard

e|--------------------------------------------------|
B|---1---------1-------------1---------1------------|
G|-2---2-2---2---2---0h2---2---2-2---2---2---0h2-2--|
D|-----------------2-----------------------0--------|
A|--------------------------------------------------|
E|--------------------------------------------------|

e|--------------------------------------------------|
B|---1---------1-------------1---------1------------|
G|-2---2-2---2---2---0h2---2---2-2---2---2---0h2-2--|
D|-----------------2-----------------------0--------|
A|--------------------------------------------------|
E|--------------------------------------------------|

e|--------------3h5-5-------------------------------|
B|------------5-------------------------------------|
G|----0h2-2---------------0h2-2---------------------|
D|-0--------------------0---------------------------|
A|--------------------------------------------------|
E|--------------------------------0-3h5-5-----------|

e|--------------------------------------------------|
B|-1-0-1-1-1-0-1---1-0-1-1-1-0-1---------------------|
G|-2-0-2-----0-2---2-0-2-----0-2-----0h2-2-----------|
D|-------2-2-------------2-2-------0-----------------|
A|---------------------------------------------------|
E|----------------------------------------==---------|



************************************

| /   slide up
| \   slide down
| h   hammer-on
| p   pull-off
| ~   vibrato
| +   harmonic
| x   Mute note
| b   Bend
| pb  Pre-bend
| br  Bend release
| pbr Pre-bend release
| brb Bend release bend

************************************
Добавлено: 11.05.2016
Вам также может быть интересно:
Другие материалы по этой песне:
  • Аккорды и текст

Страница создана 11.05.2016
http://primanota.ru/john-williams/star-wars-reys-theme-chords.htm
Привет, Гость.
Предлагаем пройти революционный курс по гитаре.
Подарок от PrimaNota.Ru, забирай!