PrimaNota.ru - самый крупный в мире бесплатный архив песенных текстов, аккордов, табулатур и нот


John Williams - Star Wars Force Theme - таба, видео

Регистрация Запомнить меня
Войти через:  Facebook Google Twitter Vk Yandex Mail.ru

John Williams - Star Wars Force Theme - таба, видео

Печатать
Просмотров: 119
-------------------------------------------------------------------------------
                             THE FORCE THEME - John Williams
                                   Star Wars Soundtrack
-------------------------------------------------------------------------------

Basic Melody
e|---------------------------------------------------------------------------|
B|---------------------------------------------------------------------------|
G|-----0---2----3-5-3-------------0---2--3-----3--0--7--5--------------------|
D|--0------------------0-------0------------0--------------------------------|
A|---------------------------------------------------------------------------|
E|---------------------------------------------------------------------------|

e|------------------------3--------------------------------------------------|
B|---------------------------------------------------------------------------|
G|-----0---2--3--0--7--3-----0----3--2--0--7--3--0-----------0---------------|
D|--0-----------------------------------------------0--0--0------------------|
A|---------------------------------------------------------------------------|
E|---------------------------------------------------------------------------|

Ending
e|---------------------------------------------------------------------------|
B|------------------------------------------------------------1---2--4--5-7--|
G|-----0---2----3-5-3--------------------------------------3-----------------|
D|--0------------------0------0--0--------0--1---8--6------------------------|
A|----------------------------------3--3-------------------------------------|
E|----------------------------------------------------4----------------------|

e|---------------------------------------------------------------------------|
B|--9----11---13~~~~~~-------------------------------------------------------|
G|---------------------------------------------------------------------------|
D|---------------------------------------------------------------------------|
A|---------------------------------------------------------------------------|
E|---------------------------------------------------------------------------|



************************************

| /   slide up
| \   slide down
| h   hammer-on
| p   pull-off
| ~   vibrato
| +   harmonic
| x   Mute note
| b   Bend
| pb  Pre-bend
| br  Bend release
| pbr Pre-bend release
| brb Bend release bend

************************************
Добавлено: 11.05.2016
Другие материалы по этой песне:

Страница создана 11.05.2016
http://primanota.ru/john-williams/star-wars-force-theme-chords.htm
Привет, Гость.
Предлагаем пройти революционный курс по гитаре.
Подарок от PrimaNota.Ru, забирай!