PrimaNota.ru - самый крупный в мире бесплатный архив песенных текстов, аккордов, табулатур и нот


John Williams - Somewhere In My Memory - таба, видео

Регистрация Запомнить меня
Войти через:  Facebook Google Twitter Vk Yandex Mail.ru

John Williams - Somewhere In My Memory - таба, видео

Печатать
Просмотров: 510
E|-----------10----|-----------------|
B|-10---10------10-|---12-10---8-7---|
G|----9----9-------|-9-------7-----9-|
D|-----------------|-----------------|
A|-----------------|-----------------|
E|-----------------|-----------------|

E|-----------10----|-----------------|
B|-10---10------10-|---12-10---8-7---|
G|----9----9-------|-9-------7-----9-|
D|-----------------|-----------------|
A|-----------------|-----------------|
E|-----------------|-----------------|

E|-------------------|-------9-7-10----9-|
B|-7---8---9---12-10-|-11-----------12---|
G|---7---9---9-------|----11-------------|
D|-------------------|-------------------|
A|-------------------|-------------------|
E|-------------------|-------------------|

E|-----------10----|-----------------|
B|-10---10------10-|---12-10---8-7---|
G|----9----9-------|-9-------7-----9-|
D|-----------------|-----------------|
A|-----------------|-----------------|
E|-----------------|-----------------|

E|-----------10----|-7-9-10--------------|-10-9-10-2-----10-9-10-|
B|-10---10------10-|--------10-7-8-7-----|-----------3-3---------|
G|----9----9-------|-----------------9-7-|-----------------------|
D|-----------------|---------------------|-----------------------|
A|-----------------|---------------------|-----------------------|
E|-----------------|---------------------|-----------------------|

E|-----------10----|-----------------|
B|-10---10------10-|---12-10---8-7---|
G|----9----9-------|-9-------7-----9-|
D|-----------------|-----------------|
A|-----------------|-----------------|
E|-----------------|-----------------|

E|-----------10----|-7-9-10------|-7-9-10------|
B|-10---10------10-|--------10-7-|--------10-7-|
G|----9----9-------|-------------|-------------|
D|-----------------|-------------|-------------|
A|-----------------|-------------|-------------|
E|-----------------|-------------|-------------|

E|-7-9-10--------|---10-9-10-|
B|--------10-7---|-----------|
G|-------------7-|-9---------|
D|---------------|-----------|
A|---------------|-----------|
E|---------------|-----------|

E|---------7---|-----------------|
B|-7---7-----7-|---9-7---5-4-2---|
G|---8---8-----|-6-----4-------6-|
D|-------------|-----------------|
A|-------------|-----------------|
E|-------------|-----------------|

E|---------7---|-4-6-7-----|-4-6-7-----|
B|-7---7-----7-|-------7-4-|-------7-4-|
G|---8---8-----|-----------|-----------|
D|-------------|-----------|-----------|
A|-------------|-----------|-----------|
E|-------------|-----------|-----------|

E|-4-6-7-------|---7-6-7-|
B|-------7-4---|---------|
G|-----------4-|-6-------|
D|-------------|---------|
A|-------------|---------|
E|-------------|---------|
Добавлено: 12.04.2012
Другие материалы по этой песне:

Страница создана 12.04.2012
http://primanota.ru/john-williams/somewhere-in-my-memory-chords.htm
Привет, Гость.
Предлагаем пройти революционный курс по гитаре.
Подарок от PrimaNota.Ru, забирай!