PrimaNota.ru - самый крупный в мире бесплатный архив песенных текстов, аккордов, табулатур и нот


John Williams - Leias Theme - таба, видео

Регистрация Запомнить меня
Войти через:  Facebook Google Twitter Vk Yandex Mail.ru

John Williams - Leias Theme - таба, видео

Печатать
Просмотров: 44
Standard tuning EADGBe




e|------2~--2---2--3--3--2--0~---------2--2----5---6--6---5--3--|
B|----------3------3----------------------3------------------3--|
G|--2~------2------3---------------2------2------------------3--|
D|-------------------------------------------------5--5---------|
A|--------------------------------------------------------------|
E|--------------------------------------------------------------|

e|---------6--6---/9--7--6----4---4----7--6--4---------------------6~-|
B|------------4---------------------------------7--6--7--9--7--9---6~-|
G|--3--3----------/9-----9-------------8--------8------------------7~-|
D|----------------------------------------------8------------------8~-|
A|----------------------------------------------6--------6---------8~-|
E|----------------------------0------------------------------------6~-|

e|-------6--5--3-----------3-----3---5--------|
B|--6-6--3--------6--5--6--3--6------5--5-----|
G|-------3--------3--------3---------6-----6--|
D|----------------3------------------7--------|
A|-----------------------------------7--------|
E|-----------------------------------5--------|



Simplified: 



e|------2~--2---2--3--3--2--0~---------2--2----5---6--6---5--3--|
B|--------------------------------------------------------------|
G|--2~----------------------------2~----------------------------|
D|--------------------------------------------------------------|
A|--------------------------------------------------------------|
E|--------------------------------------------------------------|

e|---------6--6---/9--7--6----4---4----7--6--4---------------------6~-|
B|----------------------------------------------7--6--7--9--7--9------|
G|--3--3--------------------------------------------------------------|
D|--------------------------------------------------------------------|
A|--------------------------------------------------------------------|
E|--------------------------------------------------------------------|

e|-------6--5--3-----------3-----3---5--------|
B|--6-6-----------6--5--6-----6---------5-----|
G|-----------------------------------------6--|
D|--------------------------------------------|
A|--------------------------------------------|
E|--------------------------------------------|



(end)
Добавлено: 11.05.2016
Другие материалы по этой песне:
  • Аккорды и текст

Страница создана 11.05.2016
http://primanota.ru/john-williams/leias-theme-chords.htm
Привет, Гость.
Предлагаем пройти революционный курс по гитаре.
Подарок от PrimaNota.Ru, забирай!