PrimaNota.ru - самый крупный в мире бесплатный архив песенных текстов, аккордов, табулатур и нот


John Williams - Jurassic Park Theme Thomas Oliver Version - таба, видео

Регистрация Запомнить меня
Войти через:  Facebook Google Twitter Vk Yandex Mail.ru

John Williams - Jurassic Park Theme Thomas Oliver Version - таба, видео

Печатать
Просмотров: 164
Artist: Thomas Oliver
Song: Jurassic Park Theme (John Williams)
Tabbed By: Tom Heylen

Tuning is called Eb I think.
Eb Bb Eb G Bb Eb, low to high.
Not everything is written out 100%, especially when there is more fingerpicking. Watch 
the Youtube clip and
play around with it, you'll figure it out.
https://www.youtube.com/watch?v=D-f9bpMpddA

eb ----------------------------------------------------|
Bb ----------------------------------------------------|
G  ----------------------------------------------------|
Eb --------------------------/5--5----4/0--------0-----|
Bb -5--5/4--5--5/4--5--/7-7------5----------/7-----0---|
Eb -0-------5-------0-----7------5----------/7---------|

eb ----------------------------------------------------|
Bb ----------------------------------------------------|
G  ----------------------------------------------------|
Eb -4/0--------7-0--/5--4-4----/7--7-------------------|
Bb ------/7----0----/5--0-0----/7--7-------------------|
Eb ------/7----0----/5--0-0----/7--7-------------------|

eb -----------------------------------5--5-------------|
Bb -5/4-5---5/4-5---5/4--5---/7--7-------5-------------|
G  -----0-------5--------0-------7-------5-------------|
Eb -----0-------5--------0-------7---------------------|
Bb -----0-------5--------0-----------------------------|
Eb -----0----------------0-----------------------------|

eb -4--0-------------4--0--------7---0---5---4-4-------|
Bb -0-----7----------0------7----0-------5---0-0---7-7-|
G  -0-----7---7------0------7----0-------5---0-0-----7-|
Eb -0-----7-----7----0------7----0-------5---0-0-----7-|
Bb -0-----7----------0------7----0-----------0-0-----7-|
Eb ----------------------------------------------------|

eb -0---0--------------0---0---------------------------|
Bb ---------0----/5------------0----/5-----------------|
G  ---7----------/5------7----------/5-----------------|
Eb -------0---0--/5----------0---0--/5-----------------|
Bb ----------------------------------------------------|
Eb ----------------------------------------------------|

eb -0--------------------------------------------------|
Bb ---------0------------/3----------------------------|
G  ---7-7-----0----------/3------7---------------------|
Eb -------0-----0-----0--/3------7---------------------|
Bb -----------------0--------/7--7---------------------|
Eb ---------------0--------------7---------------------|

eb -0---0--------------0---0---------------------------|
Bb ---------0----/5------------0----/5-----------------|
G  ---7----------/5------7----------/5-----------------|
Eb -------0---0--/5----------0---0--/5-----------------|
Bb ----------------------------------------------------|
Eb ----------------------------------------------------|

eb -0-------0-----------0------------------------------|
Bb -------------0--------------------------------------|
G  ---7-7-----0-----0-------7--------------------------|
Eb -------0-------0-------7-----7----------------------|
Bb -------------------0-------7------------------------|
Eb ----------------------------------------------------|

eb -0---0--------------0---0---------------------------|
Bb ---------0----/5------------0----/5-----------------|
G  ---7----------/5------7----------/5-----------------|
Eb -------0---0--/5----------0---0--/5-----------------|
Bb ----------------------------------------------------|
Eb ----------------------------------------------------|


eb -0---0--------5/4/5---------------------------------|
Bb ----------------------------------------------------|
G  ---7------------------------------------------------|
Eb -------7/6/7---------2/0/2--------------------------|
Bb ----------------------------------------------------|
Eb ----------------------------------------------------|

eb -0---0-----------0----------------------------------|
Bb -----------/5---------------------------------------|
G  ---7-------/5----------/7---------------------------|
Eb --------0--/5------5---/7---------------------------|
Bb -----------/5----------/7---------------------------|
Eb -----------------------/7---------------------------|

eb /12-------0---------------0---------------0---------|
Bb /12-----0---0---0-------0---0---0-------0---0---0---|
G  /12---0-------0---0---0-------0---0---0-------0---0-|
Eb /12-0---------------0---------------0---------------|
Bb /12-------------------------------------------------|
Eb /12-------------------------------------------------|

eb ----------0----/12-------0---------------0----------|
Bb ---------------/12-----0---0---0-------0---0---0----|
G  -/5---/7----7--/12---0-------0---0---0-------0---0--|
Eb -/5---/7-------/12-0---------------0----------------|
Bb -/5---/7-------/12----------------------------------|
Eb -/5---/7-------/12----------------------------------|

eb -------0---------------0----------------------------|
Bb -----0---0---0-------0---0---0----------------------|
G  ---0-------0---0---0-------0---0--------------------|
Eb -0---------------0----------------------------------|
Bb ----------------------------------------------------|
Eb ----------------------------------------------------|

eb ----------------------------------------------------|
Bb -5/4/5-----------5/4/5-------------5/4/5------------|
G  -----------0----------------5-----------------------|
Eb ---------0---0------------5---5------------0--------|
Bb -------0-------0--------5-------5--------0----------|
Eb -----0---------------5-----------------0------------|

eb -----------5-5------------4-0----------4-0----------|
Bb -7--7---------------------0-----7------0---7--------|
G  --------------------------0------------0------------|
Eb --------7--------5--------0---------7--0-------7----|
Bb ------7--------5---5------0-------7----0-----7------|
Eb ----7--------5-------5----------7----------7--------|

eb -7-0-----4-4----------------------------------------|
Bb -0----5--0-0---7--7---------------------------------|
G  -0----5--0-0---7--7---------------------------------|
Eb -0----5--0-0---7--7---------------------------------|
Bb -0----5--0-0---7--7---------------------------------|
Eb ------5--------7--7---------------------------------|

eb ------------------------------------------0-7-5/4/5-|
Bb -5/4/5-----------5/4/5-------------5/4/5--0---------|
G  -----------0----------------5-----------------------|
Eb ---------0---0------------5---5---------------------|
Bb -------0-------0--------5-------5-------------------|
Eb -----0---------------5-----------------0------------|

eb -7/0-5-4----7/0-------------------------------------|
Bb -0---5---7--0----10----------------12----10----9----|
G  -0---5---7--0----10------------------------------10-|
Eb -0---5---7--0----10----10-------------12------------|
Bb ---------7-------10-10----10----10----------10------|
Eb ---------7-------10----------10----------10---------|


eb ------9-/11-----/11---------------------------------|
Bb ---10-----------------------------------------------|
G  ----------------------------------------------------|
Eb ----------------------------------------------------|
Bb ------------0-0----0-0------------------------------|
Eb -0--------------------------------------------------|

eb -12/11/12---7----5--12/11/12---7---5----------------|
Bb -----------------5-----------------5----------------|
G  -----------------5-----------------5----------------|
Eb ----------0---0--5-----------0---0-5----------------|
Bb -----------------5-----------------5----------------|
Eb --------0--------5---------0-------5----------------|

eb -12/11-11/12-12---7-------/10-----------------------|
Bb --------------------------/10-----------------------|
G  ----------------0-----0---/10-----------------------|
Eb --------------------0---0-/10----10----------10-----|
Bb --------------------------/10-10----10----10----10--|
Eb --------0---------0-------/10----------10-----------|

eb -12/11/12---7----5--12/11/12---7---5----------------|
Bb -----------------5-----------------5----------------|
G  -----------------5-----------------5----------------|
Eb ----------0---0--5-----------0---0-5----------------|
Bb -----------------5-----------------5----------------|
Eb --------0--------5---------0-------5----------------|

eb -12/11-11/12-12---7---0---/12--/12---/11------------|
Bb ----------------------------------------------------|
G  ----------------------------------------------------|
Eb ----------------0---0-------------------------------|
Bb ----------------------------------------------------|
Eb --------0---------0---------------------------------|

eb -12/11/12---7----5--12/11/12---7---5----------------|
Bb -----------------5-----------------5----------------|
G  -----------------5-----------------5----------------|
Eb ----------0---0--5-----------0---0-5----------------|
Bb -----------------5-----------------5----------------|
Eb --------0--------5---------0-------5----------------|

eb -12/11-11/12-12---5---2/0---------------------------|
Bb ----------------------------------------------------|
G  ----------------------------------------------------|
Eb ----------------0---0-------------------------------|
Bb ----------------------------------------------------|
Eb --------0---------0---------------------------------|

eb --0------0----------0-----0-------------0-----------|
Bb ----------------------------------------0-----------|
G  -/5--5-----5-----5----7-----7-----7-----0-----------|
Eb -/5----5-----5----------7-----7---------0-----------|
Bb -/5-------------------------------------0-----------|
Eb -/5------5-----5----7-----7-----7-------0-----------|

eb ----------------------------------------------------|
Bb -------------7-7/9-------------9-10/12--------------|
G  -----9/7/9---------7-----9/7/9-----------/7---------|
Eb -/9-------------------/9-----------------/7---------|
Bb -/9-------------------/9-----------------/7---------|
Eb -/9-------------------/9-----------------/7---------|

eb --------------------------------0---0---------------|
Bb ---------------0----------------------0-------------|
G  ----0---0--------0--/7------------7-------1/3-------|
Eb ------0----------------/7---/9----------0-----/2----|
Bb -0-----------0--------------/9----------------------|
Eb -0---------0----------------/9----------------------|


eb -/4-----------4/3/4----------9-9--------------------|
Bb -/4---9/8/9-------4---11-11----9--------------------|
G  -/4-------9-------4------------9--------------------|
Eb -/4-------9-----------------------------------------|
Bb -/4-------------------------------------------------|
Eb -/4-------------------------------------------------|

eb ----------------------------------------------------|
Bb -------/11----------------/11-----------------------|
G  -16----/11--11------16----/11--11-------------------|
Eb ----16-/11-----11------16-/11-----11----------------|
Bb ----------------------------------------------------|
eb ----------------------------------------------------|
Bb -16----14--13--13---11---11-------------------------|
G  ----------------------------------------------------|
Eb ----16----------------------------------------------|
Bb ----------------------------------------------------|
Eb ----------------------------------------------------|

eb ----------------------------------------------------|
Bb ----------------------------------------------------|
G  ----------------------------------------------------|
Eb ---0-----0-----0-----0------------------------------|
Bb -----0-----0-----0-----0----------------------------|
Eb -0-----0-----0-----0-----0--------------------------|

eb -----------------0---0------------------------------|
Bb ---0----/2---------------0--------------------------|
G  -----------5-7---------7---/5-----------------------|
Eb -0---/2---------/9---------/5---5-------------------|
Bb ----------------/9---------/5-----5-----------------|
Eb -----/2---------/9---------/5-----------------------|

eb -----0------------------------------2--/4-4---------|
Bb ----------------------------------------------------|
G  -------/7----/4-----/5--/7--/8----------------/11---|
Eb -/9-------/7-/4---4-------------/5------------/11---|
Bb -/9----------/4-----------------/5--------4---/11---|
Eb -/9----------/4-----------------/5------------------|

eb -----------------0---0------------------------------|
Bb ---0----/2---------------0--------------------------|
G  -----------5-7---------7---/5-----------------------|
Eb -0---/2---------/9---------/5---5-------------------|
Bb ----------------/9---------/5-----5-----------------|
Eb -----/2---------/9---------/5-----------------------|

eb ----0-----------------------------------------------|
Bb ---------------------------------4-4----------------|
G  ------7--------------------5-5--------/7------------|
Eb -/9-----7--/4--4/2/4/5-4--------------/7------------|
Bb -/9--------/4-------------------------/7------------|
Eb -/9--------/4------------4-----5--------------------|

eb ----0-/2-0---0----------2---0--0--------------------|
Bb -----------4---4-2-----------------/4---------------|
G  ----------------------2-----------------------------|
Eb -/9----------------/2-------------------------------|
Bb -/9----------------/2----------0--------------------|
Eb -/9----------------/2-------------------------------|

eb -----4---9--9----------------11---------------------|
Bb ---4---4------9--11--------------16-16----11--------|
G  -----------------11--------------16-16----11--------|
Eb -4---------------11-------11-----16-16----11--------|
Bb -4----------9-------11-----------------16-----------|
Eb -4----------9----------11---------------------------|


eb ---3-5-3/2/3-2-0---------5-----3-/3-----------------|
Bb -----------------------5---5------------------------|
G  -----------------------------5----------------------|
Eb ---------------------5------------3---/7------------|
Bb ---------------------5------------3---/7------------|
Eb -0---------------0---5------------3---/7------------|

eb ----7-7---/12-12-/11-----------/14-14-----12-11-----|
Bb -/7-----7------------14----------------14--------14-|
G  -/7----------------------------------------------14-|
Eb -/7----------------------------------------------14-|
Bb ------------------------14--------------------------|
Eb ---------------------------14-----------------------|

eb -----------/16--------------------------------------|
Bb -12----14--/16--------------------------------------|
G  -12----14--/16--------------------------------------|
Eb -12----14--/16--------------------------------------|
Bb -----------/16--------------------------------------|
Eb -----------/16--------------------------------------|

eb -----------------0---0------------------------------|
Bb ---0----/2---------------0--------------------------|
G  -----------5-7---------7---/5-----------------------|
Eb -0---/2---------/9---------/5---5-------------------|
Bb ----------------/9---------/5-----5-----------------|
Eb -----/2---------/9---------/5-----------------------|

eb -----0------------------------------2--/4-4---------|
Bb ----------------------------------------------------|
G  -------/7----/4-----/5--/7--/8----------------/11---|
Eb -/9-------/7-/4---4-------------/5------------/11---|
Bb -/9----------/4-----------------/5--------4---/11---|
Eb -/9----------/4-----------------/5------------------|

eb ----------------------------------------------------|
Bb ------3-------5--5-7-/8--8--------/8----------------|
G  ---------------------------10-----/8----------------|
Eb -/3-3----/5-5-----------------10--/8---8------------|
Bb -/3------/5-------------------------------8---------|
Eb -/3------/5-----------0-----------------------------|

eb ----------------------------------------------------|
Bb -------------------5-7-8-------0--------------------|
G  ---11-10----/7---------------1---/3---/2------------|
Eb -0-------10-/7---7----------------------------------|
Bb -0----------/7------------5-------------------------|
Eb -0------------------------0-------------------------|

eb ----------------------------------------------------|
Bb ------3-------5--5-7-/8--8---------/8---------------|
G  ----------------------------10-----/8---------------|
Eb -/3-3----/5-5------------------10--/8---8-----------|
Bb -/3------/5--------------------------------8--------|
Eb -/3------/5-----------0-----------------------------|

eb ----------------------------------------------7-----|
Bb --------------------------------------/7--7---7-----|
G  ---11-10----/7------------------8--8--/7--7---7-----|
Eb -0-------10-/7-----5-7-8---7-------8--/7--7---7-----|
Bb -0----------/7---7-----------7-----8------7---7-----|
Eb -0--------------------------------------------7-----|

eb -0------------------------12------------------------|
Bb -0------------------------12------------------------|
G  -0------------------------12------------------------|
Eb -0------------------------12------------------------|
Bb -0------------------------12------------------------|
Eb -0------------------------12------------------------|
Добавлено: 08.05.2015
Другие материалы по этой песне:
  • Аккорды и текст

Страница создана 08.05.2015
http://primanota.ru/john-williams/jurassic-park-theme-thomas-oliver-version-chords.htm
Привет, Гость.
Предлагаем пройти революционный курс по гитаре.
Подарок от PrimaNota.Ru, забирай!