PrimaNota.ru - самый крупный в мире бесплатный архив песенных текстов, аккордов, табулатур и нот


John Williams - Hes A Pirate - бас-таба, видео

Регистрация Запомнить меня
Войти через:  Facebook Google Twitter Vk Yandex Mail.ru

John Williams - Hes A Pirate - бас-таба, видео

Печатать
Просмотров: 658
 Pirates Of The Carribean - Hes A Pirate Bass Tab by John Williams Film Composer

He's a Pirate Bass Tab – John Williams




G---------------|
D---------------|
A-5-55-55-5555--|
E---------------| X3

G----------------------------|
D----------------------------|
A-0-3-55-57-88-8(10)-77-5335-|
E----------------------------|

G----------------------------|
D----------------------------|
A-0-3-55-57-88-8(10)-77-53-5-|
E----------------------------|

G----------------------------------------------------|
D----------------------------------------------------|
A-0-3-55-57-(10)(10)-(10)(12)-(13)(13)-(12)(10)(12)5-|
E----------------------------------------------------|

G----------------------------|
D----------------------------|
A-57-88-(10)(12)5--58-77-857-|
E----------------------------|

G---5-77-79-(10)(10)-(10)(12)-99-7557-|
D-7-----------------------------------|
A-------------------------------------|
E-------------------------------------|

G---5-77-79-(10)(10)-(10)(12)-99-75-7-|
D-7-----------------------------------|
A-------------------------------------|
E-------------------------------------|

G---5-77-79-(12)(12)-(12)(14)-(15)(15)-(14)(12)(14)7-|
D-7--------------------------------------------------|
A----------------------------------------------------|
E----------------------------------------------------|

G-79-(10)(10)-(12)(14)7-7(10)99-(10)79-|
D--------------------------------------|
A--------------------------------------|
E--------------------------------------|

G-79-(10)(10)(12)-(14)-867-(15)-867-676-|
D---------------------------------------|
A---------------------------------------|
E---------------------------------------|

G-(13)-(13)-(13)-(14)(13)-(11)-(11)-(11)-(11)(13)-(13)-(13)-(13)-(14)(13)-(11)986-689(11--|
D-----------------------------------------------------------------------------------------|
A-----------------------------------------------------------------------------------------|
E-----------------------------------------------------------------------------------------|

G-----------------------------------------|
D-023-5753-23575-357532320-2--0-----------|
A--------------------------------------3--|
E-----------------------------------------|

G-79(10)-9(10)(12)(10)-(12)(14)(12)-(10)7--79(10)(12)(10)(14)(12)7957-|
D---------------------------------------------------------------------|
A---------------------------------------------------------------------|
E---------------------------------------------------------------------|

G-(14)-(15)-(14)(14)(14)-(14)(12)-(12)-(10)-9(10)9-97-79(10)(12--|
D----------------------------------------------------------------|
A----------------------------------------------------------------|
E----------------------------------------------------------------|

G-(14)-(15)-(14)(14)(170-(14)(12)-(10)-9(10)9-7-------------------|
D-----------------------------------------------------------------|
A------------------------------------------------------------5~~~-|
E-----------------------------------------------------------------|
Добавлено: 14.06.2012
Другие материалы по этой песне:
  • Аккорды и текст

Страница создана 14.06.2012
http://primanota.ru/john-williams/hes-a-pirate-chords.htm
Привет, Гость.
Предлагаем пройти революционный курс по гитаре.
Подарок от PrimaNota.Ru, забирай!