PrimaNota.ru - самый крупный в мире бесплатный архив песенных текстов, аккордов, табулатур и нот


John Williams - Harry Potters Hedwigs - бас-таба, видео

Регистрация Запомнить меня
Войти через:  Facebook Google Twitter Vk Yandex Mail.ru

John Williams - Harry Potters Hedwigs - бас-таба, видео

Печатать
Просмотров: 686
G------------4-2----------------|
D---2--5-4-2----4--2--5-4-0-4---|
A-2---------------------------2-|
E-------------------------------|

G------------4-7-6-5--2--5-4-3---0----|
D---2-5-4-2-------------------------2-|
A-2-------------------------------2---|
E-------------------------------------|

G-0-4-0-4-0-5-4-3-0-4-3-2---0-4---|
D---------------------------------|
A-------------------------------2-|
E---------------------------------|

G-0-4-0-4-0-7-6-5--2-5-4-3---0----|
D-------------------------------2-|
A-----------------------------2---|
E---------------------------------|

G-44444-3-4-5-4-3-4-----------------------------------------------------------|
D-------------------2-7-7-7-7-----5-7-9---99999-8-9-12-10-9-10-7-10-9-7-9-2-5-|
A-----------------------------7-6---------------------------------------------|
E-----------------------------------------------------------------------------|
Добавлено: 09.06.2012
Другие материалы по этой песне:
  • Аккорды и текст

Страница создана 09.06.2012
http://primanota.ru/john-williams/harry-potters-hedwigs-chords.htm
Привет, Гость.
Предлагаем пройти революционный курс по гитаре.
Подарок от PrimaNota.Ru, забирай!