PrimaNota.ru - самый крупный в мире бесплатный архив песенных текстов, аккордов, табулатур и нот


John Williams - Et The Extra Terrestrial Theme - таба, видео

Регистрация Запомнить меня
Войти через:  Facebook Google Twitter Vk Yandex Mail.ru

John Williams - Et The Extra Terrestrial Theme - таба, видео

Печатать
Просмотров: 249
This is the theme tune to what I call the best movie in the entire universe!!!!

|----3--1-0---0------|----5-------------7--|-----10-8-7-----------8-|
|-1---------3---1----|-------8-7-5-7-------|------------10-8-6------|
|------------------0-|-7-------------7-----|--10---------------8----|
|--------------------|---------------------|------------------------|
|--------------------|---------------------|------------------------|
|--------------------|---------------------|------------------------|

1.
|-------------------|
|-------13--12-12---|
|-8-----------------|
|---10--------------|
|-------------------|
|-------------------|

2.
|-------------------|
|-------13--15-15---|
|-8-----------------|
|---10--------------|
|-------------------|
|-------------------|


Repeat the whole section

|--7-6-7-6-4------6-4-3----2---|------------------------------|--------------|
|------------6--7--------3-----|------------------8-10--7-10--|--10-----10---|
|:----------------------------:|-8-7-8-7-5------8-------------|------10------|
|:----------------------------:|-----------7--8---------------|--------------|
|------------------------------|------------------------------|--------------|
|------------------------------|------------------------------|--------------|

|-----------------------------------|--------------------------------------|
|--10h11-10h11-----------10h11------|--10h11-10h11-------------10h11-------|
|--------------9h10-9h10-------9h10-|--------------10h11-10h11-------10h11-|
|-----------------------------------|--------------------------------------|
|-----------------------------------|--------------------------------------|
|-----------------------------------|--------------------------------------|

Repeat again but in the key of G
Then;

|----3--1-0---0------|----5-------------7--|-----10-8-7-----------8-|
|-1---------3---1----|-------8-7-5-7-------|------------10-8-6------|
|------------------0-|-7-------------7-----|--10---------------8----|
|--------------------|---------------------|------------------------|
|--------------------|---------------------|------------------------|
|--------------------|---------------------|------------------------|

            pause
|-10-8-------|----3--2-3-2-----|----3--2-3-5--2--|-----3--1-0---0-------|
|------11-9--|-1------------3--|-1---------------|--1---------3---1-----|
|------------|-----------------|-----------------|:------------------0-:|
|------------|-----------------|-----------------|:--------------------:|
|------------|-----------------|-----------------|----------------------|
|------------|-----------------|-----------------|----------------------|

|-6--8---5-3----5-3----5-3----3--|---5-3----5-3----5-3--|-----3--3-2-3-2------|------------------|
|--------------------------------|----------------------|-----------------3---|------------------|
|------------5------5------5-----|-5------5------5------|:-5-----------------:|-5----------------|
|--------------------------------|----------------------|:-------------------:|------------------|
|--------------------------------|----------------------|---------------------|------------------|
|--------------------------------|----------------------|---------------------|------------------|

And that's ya lot

If you're stuck, I'll be right here.
Добавлено: 19.04.2012
Другие материалы по этой песне:
  • Аккорды и текст

Страница создана 19.04.2012
http://primanota.ru/john-williams/et-the-extra-terrestrial-theme-chords.htm
Привет, Гость.
Предлагаем пройти революционный курс по гитаре.
Подарок от PrimaNota.Ru, забирай!