PrimaNota.ru - самый крупный в мире бесплатный архив песенных текстов, аккордов, табулатур и нот


John Williams - Epitafios 3 - таба, видео

Регистрация Запомнить меня
Войти через:  Facebook Google Twitter Vk Yandex Mail.ru

John Williams - Epitafios 3 - таба, видео

Печатать
Просмотров: 209
/* This is a song written by Mikis Theodorakis and
Jiannis Ritsos and is called "one day in may". The
original is in greek. This is tabbed out partly from
the album "Romance of the guitar" by John Williams and
partly from the clip in greek performed by
Bithikotsis. This is a simpler version than John
Williams, for example, I have left out the base notes
that he plays and also some of the turnings and riffs
that he plays. Listen to the song for timing, slides
and hammer-ons because i have not tabbed it out. */

Epitafios No3 - John Williams (simple version)

e------------------------------------
B------------------------------------
G--7--10--9--6--7--6--7--9--10--9--7-
D------------------------------------
A------------------------------------
E------------------------------------

e------------------------------------
B-10--8--10------8-------------------
G------------10----10--9--7--9--10---
D------------------------------------
A------------------------------------
E------------------------------------

e------------------------------------
B-10--8------------------------------
G--------10--9--7--6--7--9-10-9--7---
D------------------------------------
A------------------------------------
E------------------------------------


e------------------------------------------------
B-------------8---------------------8------------
G---6-7-9--10---10-9---7-6-7-9-10-9---10-9-7-----     X2
D-7----------------------------------------------
A------------------------------------------------
E------------------------------------------------


e------------------------------------
B-8-8----8-10-10--8-8-8-11-11-10--10-
G-----10-----------------------------
D------------------------------------
A------------------------------------
E------------------------------------

e------------------------------------------------
B-10--------------8----------------8-------------
G----10-9-7--9-10---10-9-7--10-9-7---10-9--9--9--
D------------------------------------------------
A------------------------------------------------
E------------------------------------------------

e----------------------------------------5--------
B-10--------------8----------------------6--------
G----10-9-7--9-10---10-9--7-10-9-7-7--6--7--------
D----------------------------------------7--------
A----------------------------------------5--------
E----------------------------------------5--------
     
Добавлено: 15.11.2013
Другие материалы по этой песне:
  • Аккорды и текст

Страница создана 15.11.2013
http://primanota.ru/john-williams/epitafios-3-chords.htm
Привет, Гость.
Предлагаем пройти революционный курс по гитаре.
Подарок от PrimaNota.Ru, забирай!