PrimaNota.ru - самый крупный в мире бесплатный архив песенных текстов, аккордов, табулатур и нот


John Williams - Cantina Band Star Wars - бас-таба, видео

Регистрация Запомнить меня
Войти через:  Facebook Google Twitter Vk Yandex Mail.ru

John Williams - Cantina Band Star Wars - бас-таба, видео

Печатать
Просмотров: 193
-------------------------------------------------------------------------------
                             Cantina Band Theme - John Williams
-------------------------------------------------------------------------------
Tabbed by: Matthew Sommerfeldt (MGS22)
E-mail: sommer77@hotmail.com 

Tuning:

G|---7---7---7------------------------------7---7---7----------------5-3-----|
D|-7---7---7---7-6-7--7-6-7-5--4-5-4-3----7---7---7---7-6-7--5-5-4-5-----7-5-|
A|-------------------------------------5-------------------------------------|
E|---------------------------------------------------------------------------|

G|---7---7---7--------5-5----------------5--8-7------------------------------|
D|-7---7---7---7-6-7------7-5-3--------7--------6h-7-------------------------|
A|------------------------------5--5-8--------------8------------------------|
E|---------------------------------------------------------------------------|

G|-14----14--14----14--14----13h-14---------14----14--14----14--14----13h-14-|
D|----15--------15--------15--------15----------15--------15--------15-------|
A|-------------------------------------17------------------------------------|
E|---------------------------------------------------------------------------|

G|--------14----14--14----14--14----13h-14----------------------------13h-14-|
D|-17--------15--------15--------15--------15------------15-------15---------|
A|----15--------------------------------------17------17-------17------------|
E|-------------------------------------------------18-------19---------------|

G|----------3-7--------------------------------------------------------------|
D|-12-----3------6-5-3-------------------------------------------------------|
A|------5--------------------------------------------------------------------|
E|---------------------------------------------------------------------------|

G|---------------------------------------------------------------------------|
D|---------------------------------------------------------------------------|
A|---------------------------------------------------------------------------|
E|---------------------------------------------------------------------------|

G|---------------------------------------------------------------------------|
D|---------------------------------------------------------------------------|
A|---------------------------------------------------------------------------|
E|---------------------------------------------------------------------------|

G|---------------------------------------------------------------------------|
D|---------------------------------------------------------------------------|
A|---------------------------------------------------------------------------|
E|---------------------------------------------------------------------------|

G|---------------------------------------------------------------------------|
D|---------------------------------------------------------------------------|
A|---------------------------------------------------------------------------|
E|---------------------------------------------------------------------------|


| /  slide up
| \  slide down
| h  hammer-on
| p  pull-off
| ~  vibrato
| +  harmonic
| x  Mute note
===============================================================================
Добавлено: 07.12.2015
Другие материалы по этой песне:

Страница создана 10.06.2012
http://primanota.ru/john-williams/cantina-band-star-wars-chords.htm
Привет, Гость.
Предлагаем пройти революционный курс по гитаре.
Подарок от PrimaNota.Ru, забирай!