PrimaNota.ru - самый крупный в мире бесплатный архив песенных текстов, аккордов, табулатур и нот


John Williams - Battle Of The Heroes - таба, видео

Регистрация Запомнить меня
Войти через:  Facebook Google Twitter Vk Yandex Mail.ru

John Williams - Battle Of The Heroes - таба, видео

Печатать
Просмотров: 331
Уроки эстрадного вокала в Санкт-Петербурге
If you listen to the song while you play this its sound better as opposed to playing it 
the song.

Intro
e--------------------------------|-----------------------------|
B--------------------------------|-----------------------------|
G--------------------------------|-----------------------------|
D--------------------------------|-----------------------------|
A-----5----7-8--8--7--5--3--7---5|---5----7-8--8--7--3--7-7--5-|
E--------------------------------|-----------------------------|

e--------------------------------|-----------------------------|
B--------------------------------|-----------------------------|
G--------------------------------|-----------------------------|
D--------------------------------|-----------------------------|
A-----5----7-8--8--7--3--7--7---5|---5----7-8--8--7--3--7-7--5-|
E--------------------------------|-----------------------------|

e--------------------------------------------|
B--------------------------------------------|
G--------------------------------------------|
D--------------------------------------------|
A---8----10-12-12--10---8-10-8-7-8-7-7--8----|
E--------------------------------------------|

e--------------------------------------------|
B--------------------------------------------|
G--------------------------------------------|
D--------------------------------------------|
A---8----10-11--11--10--6--10-10-------------|
E--------------------------------------------|

e---------------------------------------------------|repeat this one more
B---------------------------------------------------|time
G---------------------------------------------------|
D---------------------------------------------------|
A---10-9-10-10--10-9-10-10--10-9-10-12-10-10-9-7-9--|
E---------------------------------------------------|

e----------------------------|--------------------------------------|
B----------------------------|--------------------------------------|
G----------------------------|--------------------------------------|
D----------------------------|--------------------------------------|
A----3--5-6--5--3-3--1--5--3-|--3--5-6--6--5--8--6--11--9---11--11--|
E----------------------------|--------------------------------------|

e---------------------------------------------------|
B---------------------------------------------------|
G---------------------------------------------------|
D---------------------------------------------------|
A--3----5----6-8-6-------3---5-6--3--6--3---10--8---|
E-------------------3--3----------------------------|

e--------------------------------|-------------------------------------------|
B--------------------------------|-------------------------------------------|
G--------------------------------|-------------------------------------------|
D--------------------------------|-------------------------------------------|
A--5----7-8--8--7--5--3--7---5|5-|7-8--8--7--8--10-8-8--10-8-8--10-8-8--7--8-|
E--------------------------------|-------------------------------------------|

e--------------------------------------------|
B--------------------------------------------|
G--------------------------------------------|
D-----8--8--8-8-8-8-----7--7--7----7--7-7--8-|
A--------------------------------------------|
E--------------------------------------------|

thats it than really simple. if you have any question email me at kaboosetehman@gmail.com
Добавлено: 26.05.2012
Другие материалы по этой песне:

Страница создана 18.03.2012
http://primanota.ru/john-williams/battle-of-the-heroes-chords.htm
Привет, Гость.
Предлагаем пройти революционный курс по гитаре.
Подарок от PrimaNota.Ru, забирай!