PrimaNota.ru - самый крупный в мире бесплатный архив песенных текстов, аккордов, табулатур и нот


John W. work - Go Tell It On The Mountain - таба, видео

Регистрация Запомнить меня
Войти через:  Facebook Google Twitter Vk Yandex Mail.ru

John W. work - Go Tell It On The Mountain - таба, видео

Печатать
Просмотров: 30
-------------------------------------------------------------------------------
                go tell it on the mountain - John H work
-------------------------------------------------------------------------------
Tabbed by:
E-mail:
key of F
Tuning:E-A-D-G-B-e

e|---------------------------------------------------------------------------|
B|---------------------------------------------------------------------------|
G|-2--2----0------------------0-0--0---------0---2--2-------2--2----0--------|
D|------------3--0-------3----2-2--2----3----2---3--0---3--------------3--0--|
A|-3--1----1--1--1---3---3--------------5---------------3---3--1----1--1--1--|
E|-------------------5-------------------------------------------------------|
  go tell it on the mountain over the hills and everywhere go tell it on the 
e|-------------------------------------------------------------------------------|
B|-------------------------------------------------------1-----1----3-----1------|
G|-----------0---0-0-----2----0----------------------2------------------------2--|
D|-----3-----2---2-2-----3----2---3------------3-----3---3-----3----3-----3---3--|
A|-3---3--------------------------3----------------------------------------------|
E|-5-----------------------------------------------------------------------------|
  mountain that Jesus Christ is born (verse) while shepherds kept their watching 
e|---------------------------------------------------------------------------|
B|----------------------------------1---1----3----1--------------------------|
G|------0--0----------0---2----------------------------2-------------0---0---|
D|--3---2--2----3-----2---3----3----3---3----3----3----3------3------2---2---|
A|---------------------------------------------------------------------------|
E|---------------------------------------------------------------------------|
  o'er silent flocks by night when lo throughout the heavens there shone a
e|---------------------------------------------------------------------------|
B|---------------------------------------------------------------------------|
G|--------3------------------------------------------------------------------|
D|-0-------------------------------------------------------------------------|
A|------3--------------------------------------------------------------------|
E|---------------------------------------------------------------------------|
  holy light


************************************

| /   slide up
| \   slide down
| h   hammer-on
| p   pull-off
| ~   vibrato
| +   harmonic
| x   Mute note
| b   Bend
| pb  Pre-bend
| br  Bend release
| pbr Pre-bend release
| brb Bend release bend

************************************
Добавлено: 04.03.2016
Другие материалы по этой песне:
  • Аккорды и текст

Страница создана 04.03.2016
http://primanota.ru/john-w-work/go-tell-it-on-mountain-chords.htm
Привет, Гость.
Предлагаем пройти революционный курс по гитаре.
Подарок от PrimaNota.Ru, забирай!