PrimaNota.ru - самый крупный в мире бесплатный архив песенных текстов, аккордов, табулатур и нот


John Taylor - See You Again - бас-таба, видео

Регистрация Запомнить меня
Войти через:  Facebook Google Twitter Vk Yandex Mail.ru

John Taylor - See You Again - бас-таба, видео

Печатать
Просмотров: 227
Tabbed by: bassm99
E-mail: alanmatthews1966@yahoo.co.uk

Tuning: E, A, D, G

"See You Again" from the album "Feelings Are Good And Other Stories" (1995)
Written by John Taylor
John Taylor [Duran Duran]

Intro:

G|--------------------------------------------------------------------------|
D|--------------------------------------------------------------------------|
A|--------6666--------------------6666--------------------6666--------------|
E|--3333--------6666--8888--3333--------6666--8888--3333--------6666--8888--|

G|--------------------------------------------------------------------------|
D|--------------------------------------------------------------------------|
A|--------6666--------------------------------------------------------------|
E|--3333--------6666--8----6-8-6--------------------------------------------|

Verse: (Seven Times)

G|--------------------------------------------------------------------------|
D|--------------------------------------------------------------------------|
A|--------6666--------------------------------------------------------------|
E|--3333--------6666--8888--------------------------------------------------|

Verse End:

G|--------------------------------------------------------------------------|
D|--------------------------------------------------------------------------|
A|--------6666--------------------------------------------------------------|
E|--3333--------6666--8----6-8-6--------------------------------------------|

Chorus: (Three Times)

G|--------------------------------------------------------------------------|
D|--------------------------------------------------------------------------|
A|--5555--------------------------------------------------------------------|
E|--------6666--8888--3333--------------------------------------------------|

Chorus End:

G|--------------------------------------------------------------------------|
D|--------------------------------------------------------------------------|
A|--------------------------------------------------------------------------|
E|--66666666--88888888--10-10-10-10-10--------------------------------------|

Pre Verse:

G|--------------------------------------------------------------------------|
D|--------------------------------------------------------------------------|
A|--------------------------------------------------------------------------|
E|--3333----33--------------------------------------------------------------|

Verse: (Nine Times)

G|--------------------------------------------------------------------------|
D|--------------------------------------------------------------------------|
A|--------6666--------------------------------------------------------------|
E|--3333--------6666--8888--------------------------------------------------|

Verse End:

G|--------------------------------------------------------------------------|
D|--------------------------------------------------------------------------|
A|--------6666--------------------------------------------------------------|
E|--3333--------6666--8----6-8-6--------------------------------------------|

Solo: (Three Times)

G|--------------------------------------------------------------------------|
D|--------------------------------------------------------------------------|
A|--5555--------------------------------------------------------------------|
E|--------6666--8888--3333--------------------------------------------------|

Solo End: (Three Times)

G|--------------------------------------------------------------------------|
D|--------------------------------------------------------------------------|
A|--------------------------------------------------------------------------|
E|--66666666--88888888------------------------------------------------------|

Chorus: (Three Times)

G|--------------------------------------------------------------------------|
D|--------------------------------------------------------------------------|
A|--5555--------------------------------------------------------------------|
E|--------6666--8888--3333--------------------------------------------------|

Chorus End:

G|--------------------------------------------------------------------------|
D|--------------------------------------------------------------------------|
A|--------------------------------------------------------------------------|
E|--66666666--88888888--10-10-10-10-----------------------------------------|

End: (Eight Times/Fade Out)

G|--------------------------------------------------------------------------|
D|--------------------------------------------------------------------------|
A|--------------------------------------------------------------------------|
E|--3333--------------------------------------------------------------------|
Добавлено: 29.07.2013
Вам также может быть интересно:
Другие материалы по этой песне:
  • Аккорды и текст

Страница создана 29.07.2013
http://primanota.ru/john-taylor/see-you-again-chords.htm
Привет, Гость.
Предлагаем пройти революционный курс по гитаре.
Подарок от PrimaNota.Ru, забирай!