PrimaNota.ru - самый крупный в мире бесплатный архив песенных текстов, аккордов, табулатур и нот


John Taylor - Feelings Are Good - бас-таба, видео

Регистрация Запомнить меня
Войти через:  Facebook Google Twitter Vk Yandex Mail.ru

John Taylor - Feelings Are Good - бас-таба, видео

Печатать
Просмотров: 102
Tabbed by: bassm99
E-mail: alanmatthews1966@yahoo.co.uk

Tuning: E, A, D, G

"Feelings R Good" from the album "Feelings Are Good And Other Stories" (1995)
Written by John Taylor
John Taylor [Duran Duran] 

Intro: (Three Times)

G|--------------------------------------------------------------------------|
D|--------------------------------------------------------------------------|
A|--4/-6--------------------------------------------------------------------|
E|-------7-4----------------------------------------------------------------|

Verse:

G|--------------------------------------------------------------------------|
D|--------------------------------------------------------------------------|
A|--6666------------------6666------------------6666------------------------|
E|--------7777--44444444--------7777--44444444--------7777--44444444--------|


G|--------------------------------------------------------------------------|
D|--------------------------------------------------------------------------|
A|--6666--------11-11-11-11-11-11-11-4--------------------------------------|
E|--------7777--------------------------------------------------------------|

Verse: (Four Times)

G|--------------------------------------------------------------------------|
D|--------------------------------------------------------------------------|
A|--6666--------------------------------------------------------------------|
E|--------7777--44444444----------------------------------------------------|

Chorus: (Four Times)

G|--------------------------------------------------------------------------|
D|--------------------------------------------------------------------------|
A|--6666--------11-11-11-11-11-11-11-4--------------------------------------|
E|--------7777--------------------------------------------------------------|

Verse: (Seven Times)

G|--------------------------------------------------------------------------|
D|--------------------------------------------------------------------------|
A|--6666--------------------------------------------------------------------|
E|--------7777--44444444----------------------------------------------------|

G|--------------------------------------------------------------------------|
D|--------------------------------------------------------------------------|
A|--6666--------11-11-11-11-11-11-11-4--------------------------------------|
E|--------7777--------------------------------------------------------------|

Chorus: (Three Times)

G|--------------------------------------------------------------------------|
D|--------------------------------------------------------------------------|
A|--6666--------11-11-11-11-11-11-11-4--------------------------------------|
E|--------7777--------------------------------------------------------------|

G|--------------------------------------------------------------------------|
D|--------------------------------------------------------------------------|
A|--6666--------------------------------------------------------------------|
E|--------7777--44444444----------------------------------------------------|

Middle: (Twice)

G|--------------------------------------------------------------------------|
D|--------------------------------------------------------------------------|
A|----------------------77777777--------------------------------------------|
E|--22222222--66666666------------44444444----------------------------------|

Guitar Solo: (Twice)

G|--------------------------------------------------------------------------|
D|--------------------------------------------------------------------------|
A|--6666------------------6666--------11-11-11-11-11-11-11-4----------------|
E|--------7777--44444444--------7777----------------------------------------|

Verse: (Twice)

G|--------------------------------------------------------------------------|
D|--------------------------------------------------------------------------|
A|--6666------------------6666--------11-11-11-11-11-11-11-4----------------|
E|--------7777--44444444--------7777----------------------------------------|

Verse:

G|--------------------------------------------------------------------------|
D|--------------------------------------------------------------------------|
A|--6666------------------6666------------------6666------------------------|
E|--------7777--44444444--------7777--44444444--------7777--44444444--------|


G|--------------------------------------------------------------------------|
D|--------------------------------------------------------------------------|
A|--6666--------11-11-11-11-11-11-11-4--------------------------------------|
E|--------7777--------------------------------------------------------------|

Chorus: (Six Times)

G|--------------------------------------------------------------------------|
D|--------------------------------------------------------------------------|
A|--6666--------11-11-11-11-11-11-11-4--------------------------------------|
E|--------7777--------------------------------------------------------------|

End: 

G|--------------------------------------------------------------------------|
D|--------------------------------------------------------------------------|
A|--6666--------11-11-11-11-------------------------------------------------|
E|--------7777--------------------------------------------------------------|
Добавлено: 10.10.2013
Другие материалы по этой песне:
  • Аккорды и текст

Страница создана 10.10.2013
http://primanota.ru/john-taylor/feelings-are-good-chords.htm
Привет, Гость.
Предлагаем пройти революционный курс по гитаре.
Подарок от PrimaNota.Ru, забирай!