PrimaNota.ru - самый крупный в мире бесплатный архив песенных текстов, аккордов, табулатур и нот


John Taylor - Always Wrong - бас-таба, видео

Регистрация Запомнить меня
Войти через:  Facebook Google Twitter Vk Yandex Mail.ru

John Taylor - Always Wrong - бас-таба, видео

Печатать
Просмотров: 69
Уроки эстрадного вокала в Санкт-Петербурге
Tabbed by: bassm99
E-mail: alanmatthews1966@yahoo.co.uk

Tuning: E, A, D, G

"Always Wrong" from the album "Feelings Are Good And Other Stories" (1995)
Written by John Taylor
John Taylor [Duran Duran]

Intro: (Twice - first note slide only once)

G|--------------------------------------------------------------------------|
D|--------------------------------------------------------------------------|
A|-----------33--66------------33--66---------------------------------------|
E|--15\--33----------6666--33----------66--66-5-4---------------------------|

Verse: (Four Times)

G|--------------------------------------------------------------------------|
D|--------------------------------------------------------------------------|
A|------33--66--------------------------------------------------------------|
E|--33----------6666--------------------------------------------------------|

Verse: (Four Times)

G|--------------------------------------------------------------------------|
D|--------------------------------------------------------------------------|
A|------33--66--------------------------------------------------------------|
E|--33----------66--66-5-4--------------------------------------------------|

Verse: (Eight Times)

G|--------------------------------------------------------------------------|
D|--------------------------------------------------------------------------|
A|------33--66--------------------------------------------------------------|
E|--33----------6666--------------------------------------------------------|

Pre Chorus: (Twice)

G|--------------------------------------------------------------------------|
D|--------------------------------------------------------------------------|
A|------33--66--------------------------------------------------------------|
E|--33----------66--66-5-4--------------------------------------------------|

Chorus: (Three Times)

G|--------------------------------------------------------------------------|
D|--------------------------------------------------------------------------|
A|------------55555555------------------------------------------------------|
E|--66666666------------33333333--55555555----------------------------------|

Chorus:

G|--------------------------------------------------------------------------|
D|--------------------------------------------------------------------------|
A|------------55555555------------------------------------------------------|
E|--66666666------------3333333333333333------------------------------------|

Solo:

G|--------------------------------------------------------------------------|
D|--------------------------------------------------------------------------|
A|------------------------10-10---------------------------------------------|
E|--33----33----15\-33----------33------------------------------------------|

End: (Seven Times)

G|--------------------------------------------------------------------------|
D|--------------------------------------------------------------------------|
A|------33--66--------------------------------------------------------------|
E|--33----------66--66-5-4--------------------------------------------------|

End:

G|--------------------------------------------------------------------------|
D|--------------------------------------------------------------------------|
A|------33--66--13-13-13-13-13-13-13-13-------------------------------------|
E|--33----------------------------------------------------------------------|

End: (Three Times)

G|--------------------------------------------------------------------------|
D|--------------------------------------------------------------------------|
A|------33--66--------------------------------------------------------------|
E|--33----------66--66-5-4--------------------------------------------------|

End:

G|--------------------------------------------------------------------------|
D|--------------88----------------------------------------------------------|
A|------33--66--------------------33--66------------------------------------|
E|--33--------------66-5-4----33----------13--------------------------------|
Добавлено: 06.10.2013
Другие материалы по этой песне:
  • Аккорды и текст

Страница создана 06.10.2013
http://primanota.ru/john-taylor/always-wrong-chords.htm
Привет, Гость.
Предлагаем пройти революционный курс по гитаре.
Подарок от PrimaNota.Ru, забирай!