PrimaNota.ru - самый крупный в мире бесплатный архив песенных текстов, аккордов, табулатур и нот


John Sykes - Cautionary Warning - таба, видео

Регистрация Запомнить меня
Войти через:  Facebook Google Twitter Vk Yandex Mail.ru

John Sykes - Cautionary Warning - таба, видео

Печатать
Просмотров: 92
Авторы музыки: John Sykes
Авторы текста: John Sykes
Intro:

lead guitar pickslides G,B,e to bridge, then from bridge to nut

Rhythm:
e)---|--------------------------------------------------------------|
B)---|--------------------------------------------------------------|
G)---|--------------------------------------------------------------|
D)---|--------------------------------------------------------------|
A)---|----77-1010-77---------1010-99-----77-1010-77---------1010-99-|
D)-5-|-77------------77-1010----------77------------99-1010---------|

e)--------------------------------------------------------------|
B)--------------------------------------------------------------|
G)--------------------------------------------------------------|
D)--------------------------------------------------------------|
A)----77-1010-77---------1010-99-----77-1010-77---------1010-99-|
D)-77------------77-1010----------77------------99-1010---------|
                                                   /\
                                                  /  \
                                   lead guitar pickslides G,B,e strings
                                        from bridge down to nut

Chorus:
Rhythm:
e)------------------------------------------------------------------------|
B)------------------------------------------------------------------------|
G)------------------------------------------------------7--777777777777---|
D)-3--3333333333333--0--0000000000000--7--777777777777--7--777777777777---|
A)-3--3333333333333--0--0000000000000--7--777777777777--5--555555555555---|
D)-3--3333333333333--0--0000000000000--7--777777777777--------------------|
      *************     *************     ************     ************
e)------------------------------------------------------------------------|
B)------------------------------------------------------------------------|
G)------------------------------------------------------7--777777777777---|
D)-3--3333333333333--0--0000000000000--7--777777777777--7--777777777777---|
A)-3--3333333333333--0--0000000000000--7--777777777777--5--555555555555---|
D)-3--3333333333333--0--0000000000000--7--777777777777--------------------|
      *************     *************     ************     ************

e)------------------------------------------|
B)------------------------------------------|
G)------------------------------------------|
D)-0-2-3r--33333333333333-5r-55555555555555-|
A)-0-2-3r--33333333333333-5r-55555555555555-|
D)-0-2-3r--33333333333333-5r-55555555555555-|
           **************    **************
Interlude(same as intro)
Rhythm:
e)------------------------------------------------------------------|
B)------------------------------------------------------------------|
G)------------------------------------------------------------------|
D)------------------------------------------------------------------|
A)----77-1010-77---------1010-99-----77-1010-77---------1010-99-----|
D)-77------------77-1010----------77------------99-1010-------------|
                                               /
                                              /
                               lead:   e)------------|   preferably pinch
                                       B)------------| (or forced) harmonics
                                       G)-(9)v--(7)v-|
                                       D)------------|
                                       A)------------|
                                       E)------------|

Verse:
e)---------------------------------------------------------------------|
B)---------------------------------------------------------------------|
G)---------------------------------------------------------------------|
D)-7-77777777777-7-7-9-99999999999-9-9-10-1010101010101010101010-10-10-|
A)-7-77777777777-7-7-9-99999999999-9-9-10-1010101010101010101010-10-10-|
D)-7-77777777777-7-7-9-99999999999-9-9-10-1010101010101010101010-10-10-|
     *********** * *   *********** * *     * * * * * * * * * * *  *  *
e)-------------------------------------------------------------|
B)-------------------------------------------------------------|
G)-11--11-11-11-11-11-11--10-----------------------------------|
D)-11--11-11-11-11-11-11--10-----------------------------------|
A)--9---9--9--9--9--9--9---8-----------------------------------|
D)-------------------------------------------------------------|
        *  *  *  *  *  *

e)---------------------------------------------------------------------|
B)---------------------------------------------------------------------|
G)---------------------------------------------------------------------|
D)-7-77777777777-7-7-9-99999999999-9-9-10-1010101010101010101010-10-10-|
A)-7-77777777777-7-7-9-99999999999-9-9-10-1010101010101010101010-10-10-|
D)-7-77777777777-7-7-9-99999999999-9-9-10-1010101010101010101010-10-10-|
     *********** * *   *********** * *     * * * * * * * * * * *  *  *
e)-------------------------------------------------------------|
B)-------------------------------------------------------------|
G)-11--11-11-11-11-11-11--10-----------------------------------|
D)-11--11-11-11-11-11-11--10-----------------------------------|
A)--9---9--9--9--9--9--9---8-----------------------------------|
D)-------------------------------------------------------------|
        *  *  *  *  *  *

lead guitar pickslides G,B,e from bridge to nut

Chorus:
Rhythm:
e)------------------------------------------------------------------------|
B)------------------------------------------------------------------------|
G)------------------------------------------------------7--777777777777---|
D)-3--3333333333333--0--0000000000000--7--777777777777--7--777777777777---|
A)-3--3333333333333--0--0000000000000--7--777777777777--5--555555555555---|
D)-3--3333333333333--0--0000000000000--7--777777777777--------------------|
      *************     *************     ************     ************
e)------------------------------------------------------------------------|
B)------------------------------------------------------------------------|
G)------------------------------------------------------7--777777777777---|
D)-3--3333333333333--0--0000000000000--7--777777777777--7--777777777777---|
A)-3--3333333333333--0--0000000000000--7--777777777777--5--555555555555---|
D)-3--3333333333333--0--0000000000000--7--777777777777--------------------|
      *************     *************     ************     ************

e)-----------------|
B)-----------------|
G)-----------------|
D)-0-2-3r---333-5r-|
A)-0-2-3r---333-5r-|
D)-0-2-3r---333-5r-|
            ***

Solo: Will post when I get it. I'm not very good with scales and solos, so it will take 
friend a while to figure it out. But you're probably better off making up your own solo 
Just improvise over F harmonic minor. Its sounds cool.

Chorus:

Rhythm:
e)------------------------------------------------------------------------|
B)------------------------------------------------------------------------|
G)------------------------------------------------------7--777777777777---|
D)-3--3333333333333--0--0000000000000--7--777777777777--7--777777777777---|
A)-3--3333333333333--0--0000000000000--7--777777777777--5--555555555555---|
D)-3--3333333333333--0--0000000000000--7--777777777777--------------------|
      *************     *************     ************     ************
e)------------------------------------------------------------------------|
B)------------------------------------------------------------------------|
G)------------------------------------------------------7--777777777777---|
D)-3--3333333333333--0--0000000000000--7--777777777777--7--777777777777---|
A)-3--3333333333333--0--0000000000000--7--777777777777--5--555555555555---|
D)-3--3333333333333--0--0000000000000--7--777777777777--------------------|
      *************     *************     ************     ************

e)------------------------------------------|
B)------------------------------------------|
G)------------------------------------------|
D)-0-2-3r--33333333333333-5r-55555555555555-|
A)-0-2-3r--33333333333333-5r-55555555555555-|
D)-0-2-3r--33333333333333-5r-55555555555555-|
           **************    **************

Interlude(same as intro)
Rhythm:
e)------------------------------------------------------------------|
B)------------------------------------------------------------------|
G)------------------------------------------------------------------|
D)------------------------------------------------------------------|
A)----77-1010-77---------1010-99-----77-1010-77---------1010-99-----|
D)-77------------77-1010----------77------------99-1010-------------|
                                               /
                                              /
                               lead:   e)------------|
                                       B)------------|
                                       G)-(9)v--(7)v-|
                                       D)------------|
                                       A)------------|
                                       E)------------|

Verse:
Rhythm:
e)---------------------------------------------------------------------|
B)---------------------------------------------------------------------|
G)---------------------------------------------------------------------|
D)-7-77777777777-7-7-9-99999999999-9-9-10-1010101010101010101010-10-10-|
A)-7-77777777777-7-7-9-99999999999-9-9-10-1010101010101010101010-10-10-|
D)-7-77777777777-7-7-9-99999999999-9-9-10-1010101010101010101010-10-10-|
     *********** * *   *********** * *     * * * * * * * * * * *  *  *
e)-------------------------------------------------------------|
B)-------------------------------------------------------------|
G)-11--11-11-11-11-11-11--10-----------------------------------|
D)-11--11-11-11-11-11-11--10-----------------------------------|
A)--9---9--9--9--9--9--9---8-----------------------------------|
D)-------------------------------------------------------------|
        *  *  *  *  *  *

e)---------------------------------------------------------------------|
B)---------------------------------------------------------------------|
G)---------------------------------------------------------------------|
D)-7-77777777777-7-7-9-99999999999-9-9-10-1010101010101010101010-10-10-|
A)-7-77777777777-7-7-9-99999999999-9-9-10-1010101010101010101010-10-10-|
D)-7-77777777777-7-7-9-99999999999-9-9-10-1010101010101010101010-10-10-|
     *********** * *   *********** * *     * * * * * * * * * * *  *  *
e)-------------------------------------------------------------|
B)-------------------------------------------------------------|
G)-11--11-11-11-11-11-11--10-----------------------------------|
D)-11--11-11-11-11-11-11--10-----------------------------------|
A)--9---9--9--9--9--9--9---8-----------------------------------|
D)-------------------------------------------------------------|
        *  *  *  *  *  *

lead guitar pickslides G,B,e from bridge to nut

Chorus:
Rhythm:
e)------------------------------------------------------------------------|
B)------------------------------------------------------------------------|
G)------------------------------------------------------7--777777777777---|
D)-3--3333333333333--0--0000000000000--7--777777777777--7--777777777777---|
A)-3--3333333333333--0--0000000000000--7--777777777777--5--555555555555---|
D)-3--3333333333333--0--0000000000000--7--777777777777--------------------|
      *************     *************     ************     ************
e)------------------------------------------------------------------------|
B)------------------------------------------------------------------------|
G)------------------------------------------------------7--777777777777---|
D)-3--3333333333333--0--0000000000000--7--777777777777--7--777777777777---|
A)-3--3333333333333--0--0000000000000--7--777777777777--5--555555555555---|
D)-3--3333333333333--0--0000000000000--7--777777777777--------------------|
      *************     *************     ************     ************

e)------------------------------------------|
B)------------------------------------------|
G)------------------------------------------|
D)-0-2-3r--33333333333333-5r-55555555555555-|
A)-0-2-3r--33333333333333-5r-55555555555555-|
D)-0-2-3r--33333333333333-5r-55555555555555-|
           **************    **************

Outro(chorus):
Rhythm:
e)------------------------------------------------------------------------|
B)------------------------------------------------------------------------|
G)------------------------------------------------------7--777777777777---|
D)-3--3333333333333--0--0000000000000--7--777777777777--7--777777777777---|
A)-3--3333333333333--0--0000000000000--7--777777777777--5--555555555555---|
D)-3--3333333333333--0--0000000000000--7--777777777777--------------------|
      *************     *************     ************     ************
e)------------------------------------------------------------------------|
B)------------------------------------------------------------------------|
G)------------------------------------------------------7--777777777777---|
D)-3--3333333333333--0--0000000000000--7--777777777777--7--777777777777---|
A)-3--3333333333333--0--0000000000000--7--777777777777--5--555555555555---|
D)-3--3333333333333--0--0000000000000--7--777777777777--------------------|
      *************     *************     ************     ************


Rhythm:
e)-----------------------------------------------------------------------|
B)-----------------------------------------------------------------------|
G)------------------------------------------------------7-77777--9-999999|
D)-3--3333333333333--0--0000000000000--7--777777777777--7-77777--9-999999|
A)-3--3333333333333--0--0000000000000--7--777777777777--5-55555--7-777777|
D)-3--3333333333333--0--0000000000000--7--777777777777-------------------|
      *************    *************     ************
e)-----------------------------------------------------------------------|
B)-----------------------------------------------------------------------|
G)------------------------------------------------------7-777777-9-999999|
D)-3--3333333333333--0--0000000000000--7--777777777777--7-777777-9-999999|
A)-3--3333333333333--0--0000000000000--7--777777777777--5-555555-7-777777|
D)-3--3333333333333--0--0000000000000--7--777777777777-------------------|
      *************     *************     ***********
Rhythm:
e)-----------------------------------------------------------------------|
B)-----------------------------------------------------------------------|
G)------------------------------------------------------7-77777--9-999999|
D)-3--3333333333333--0--0000000000000--7--777777777777--7-77777--9-999999|
A)-3--3333333333333--0--0000000000000--7--777777777777--5-55555--7-777777|
D)-3--3333333333333--0--0000000000000--7--777777777777-------------------|
      *************    *************     ************
e)-----------------------------------------------------------------------|
B)-----------------------------------------------------------------------|
G)------------------------------------------------------7-777777-9-999999|
D)-3--3333333333333--0--0000000000000--7--777777777777--7-777777-9-999999|
A)-3--3333333333333--0--0000000000000--7--777777777777--5-555555-7-777777|
D)-3--3333333333333--0--0000000000000--7--777777777777-------------------|
      *************     *************     ***********
Fade Out.


Note:
Here is a cool ending(have lead guitar solo over the whole outro and ending).

Outro(chorus):
Rhythm:
e)------------------------------------------------------------------------|
B)------------------------------------------------------------------------|
G)------------------------------------------------------7--777777777777---|
D)-3--3333333333333--0--0000000000000--7--777777777777--7--777777777777---|
A)-3--3333333333333--0--0000000000000--7--777777777777--5--555555555555---|
D)-3--3333333333333--0--0000000000000--7--777777777777--------------------|
      *************     *************     ************     ************
e)-----------------------------------------------------------------------|
B)-----------------------------------------------------------------------|
G)------------------------------------------------------7-777777-9-999999|
D)-3--3333333333333--0--0000000000000--7--777777777777--7-777777-9-999999|
A)-3--3333333333333--0--0000000000000--7--777777777777--5-555555-7-777777|
D)-3--3333333333333--0--0000000000000--7--777777777777-------------------|
      *************     *************     ***********
e)-----------------------------------------------------------------------|
B)-----------------------------------------------------------------------|
G)------------------------------------------------------7-77777--9-999999|
D)-3--3333333333333--0--0000000000000--7--777777777777--7-77777--9-999999|
A)-3--3333333333333--0--0000000000000--7--777777777777--5-55555--7-777777|
D)-3--3333333333333--0--0000000000000--7--777777777777-------------------|
      *************    *************     ************
e)-----------------------------------------------------------------------|
B)-----------------------------------------------------------------------|
G)------------------------------------------------------7-777777-9-999999|
D)-3--3333333333333--0--0000000000000--7--777777777777--7-777777-9-999999|
A)-3--3333333333333--0--0000000000000--7--777777777777--5-555555-7-777777|
D)-3--3333333333333--0--0000000000000--7--777777777777-------------------|
      *************     *************     ***********
e)-----------------------------------------------------------------------|
B)-----------------------------------------------------------------------|
G)------------------------------------------------------7-77777--9-999999|
D)-3--3333333333333--0--0000000000000--7--777777777777--7-77777--9-999999|
A)-3--3333333333333--0--0000000000000--7--777777777777--5-55555--7-777777|
D)-3--3333333333333--0--0000000000000--7--777777777777-------------------|
      *************     *************     ************

  Rhythm:
e)------------------------------------------------------------------|
B)------------------------------------------------------------------|
G)------------------------------------------------------------------|
D)------------------------------------------------------------------|
A)----77-1010-77---------1010-99-----77-1010-77---------1010-99-----|
D)-77------------77-1010----------77------------99-1010-------------|

e)------------------------------------------------------------------|
B)------------------------------------------------------------------|
G)------------------------------------------------------------------|
D)--------------------------------------------------------------7\--|
A)----77-1010-77---------1010-99-----77-1010-77---------1010-99-7\--|
D)-77------------77-1010----------77------------99-1010---------7\--|


| /  slide up
| \  slide down
| h  hammer-on
| p  pull-off
| v  vibrato
| () harmonic
| x  Mute note
| t  tremolo
Добавлено: 28.02.2012
Другие материалы по этой песне:

Страница создана 28.02.2012
http://primanota.ru/john-sykes/cautionary-warning-chords.htm
Привет, Гость.
Предлагаем пройти революционный курс по гитаре.
Подарок от PrimaNota.Ru, забирай!