PrimaNota.ru - самый крупный в мире бесплатный архив песенных текстов, аккордов, табулатур и нот


John Squire - Time Changes Everything - таба, видео

Регистрация Запомнить меня
Войти через:  Facebook Google Twitter Vk Yandex Mail.ru

John Squire - Time Changes Everything - таба, видео

Печатать
Просмотров: 79
Уроки эстрадного вокала в Санкт-Петербурге
 Song: Time Changes Everything                    
 Album: Time Changes Everything  
 Artist: John Squire                   
 Tabbed By: Lee Thomas Robson  The_Axis@gmx.co.uk> 26/11/2002
 
 Intro: Rhythm Guitar
    C                           F             
 e|-Acoustic-Guitar---------------|-1---1(1)--| Intro: C,F, x2
 b|-1--(1)-1-------------1h3-1----|-1h3-3p1-1-| C, Am,F,C, Am,F,C,
 g|-0-h-2--0--0------0h2--------2-|-----------|  
 d|--------------0h2------------3-|-----------| Verse:
 a|-------------------------------|-----------| Am,F,C, F,C,G           x2
 e|-------------------------------|-----------| Am,F,C, F,C,(G,G/F,G/E,G/F)
    C                           F                      
 e|-------------------------------|-----------------| Chorus:    
 b|-1--(1)-1------------1h3-1-----|-------1---------| C,G,Am,F
 g|-0-h-2--0--0------0----------2-|-----0---0-------| C,G,F,G
 d|--------------0h2------------3-|-2h3-------3-2---| C,G,F,C         x2
 a|-------------------------------|---------------3-| F,C,(G,G/F,G/E,G/F)
 e|-------------------------------|-----------------|        

 Intro: Guitar 2 - lead
    C                                           C
 e|-Electric-Guitar----------|-8-----8\--3----|---1----1--0----
 b|-------6-8--6-5-----------|-8-----8\--1----|-3---3-------1--
 g|-------7/9--7-5-5/7--9----|-9-----9\--2----|----------------
 d|------------------------7-|-C---------F----|----------------
 a|--------------------------|----------------|----------------
 e|--------------------------|----------------|----------------

 Still in the intro...
    Am           F         C             C       
 e|----------------------|-1st-ending--|-2nd---|
 b|-----1---1h3------1-1-|-3p1---------|-------|
 g|-0h2---2------0h2-----|-----2-0-0-0-|-----0-|
 d|----------------------|-------------|-0h2---|
 a|----------------------|-------------|-------|
 e|----------------------|-------------|-------|

 Verse:
    Am          F                  C   F       C     
 e|-----------------0----------------|------------------|
 b|-3h5--3--1---1h3----3p1---1h3p1---|-----1-------1----|
 g|-----------------------2--------0-|---2---2--------0-|
 d|----------------------------------|-3-------0h2------|
 a|----------------------------------|------------------|
 e|----------------------------------|------------------|
    
    G                         Am               F          C    
 e|-----------------------------|---|-8-7~--8----------------|
 b|---5---3---1---1p0-3p0-1p0-1-|Tab|-x--------8~---------1--|
 g|-0---0---0---0---------------|-?-|-x---------------0h2----|
 d|-----------------------------|---|------------------------|
 a|-----------------------------|-F-|------------------------|
 e|-----------------------------|-C-|------------------------|
    
    G      G/F         G/E   G/F     G     G/F          G/E      G/F  
 e|------------------|-------1-3~--|---------------------8--8--8--8---7-7-|
 b|-0-1-3-3/5---3--1-|-0-1-3-3/5~--|-0-1-3-3/5--3--1/---10-10-10-10---8-8-|
 g|------------------|-------------|--------------------------------------|
 d|------------------|-------------|--------------------------------------|
 a|------------------|-------------|--------------------------------------|
 e|------------------|-------------|--------------------------------------|




Chorus:
  C      G         Am        F               C               
e|---------------------|-------------------------|---------------|
b|-------6-------5-----|-This-bit-was-quiet------|---------------|
g|--7/9--7-5-5h7-------|-so-Ive-made-this-up-----|---------------|
d|-----------------7---|-5h7-5h7p5--------5------|---------------|
a|---------------------|-----------7--5h7----3---|-G----F----G---|
e|---------------------|-------------------------|---------------|
        
           C          G         F           C             
e|-------|-------I--know-why-the-caged-bird-sings,-|
b|-6-----|------------6-------5--------------------|
g|-7h9-7-|-5-----7/9--7-5--5h7---------------------|
d|-------|----------------------7------------------|
a|-------|-----------------------------------------|    
e|-------|-----------------------------------------|

  F              C              G, G/F, G/E, G/E
e|-gap-----------8--8---8-8--|----------------------------------------
b|-----10---10-x-8--8---8-8--|-x5p3--5p3------------------------------
g|-----10---10-x-9--9---9-9--|-----5----5/7---9--7p5------x9--7p5-----
d|-----10---10-x-10-10--1010-|-----------------------7p5---------7p5--
a|-----8----8--x-------------|----------------------------------------
e|---------------------------|----------------------------------------
Interlude:              Am
e|------------------------------------|------|------|
b|--------------8---8-8h10~----10p8~--|-10p8-|------|
g|-----5---x7/9---9-------------------|--x5--|-9-9\-|
d|-5/7--------------------------------|------|------|
a|------------------------------------|------|------|
e|------------------------------------|------|------|

Just before solo:
e|-------------------------------------------------|
b|-------------------------------------------------|
g|-------------------------------------------------|
d|-7(8)(7)(8)(7)-5/3-5p3--------3------------------|
a|----------------------5p3--5---------------------|
e|-------------------------------------------------|

Solo: (at the end of the 3rd chorus) 
  G, G/F, G/E, G/E  repeat forever
e|----------------------------------------------------|
b|----------3---3--3----------------------------------|
g|--------*----------5--5--4(5)(4)--------------------|
d|-5-3-5--3h5----------------------5--3\----3---3h5-5-|
a|--------*=quick-hammer-----------------/5---5-------|
e|----------------------------------------------------|

e|-1st-time-----------------------|----------------------------------|
b|--------------------------------|---------------*-*------*-*-------|
g|--------------------------------|-----7---------0-0------0------2--|
d|-7(8)(7)(8)(7)-5\3-5--3---3---5-|-7(8)--7(8)(7)-7-5------5-0-4-----|
a|------------------------5-------|----------------------------------|
e|--------------------------------|----------------------------------|

e|-2nd-time-----------------------|-----------------------------------|
b|--------------------------------|---------------*-*-----*-*---------|
g|--------------------------------|-----7---------0-0-----0-0------2--|
d|-7(8)(7)(8)(7)-5\3-5--3---3---5-|-7(8)--7(8)(7)-5-5-----7-5-0-4-----|
a|------------------------5-------|-----------------------------------|
e|--------------------------------|-----------------------------------|

 In the solo, there is a small section I cant quite hear properly - (*s). 


     
Добавлено: 01.10.2013
Другие материалы по этой песне:

Страница создана 15.07.2012
http://primanota.ru/john-squire/time-changes-everything-chords.htm
Привет, Гость.
Предлагаем пройти революционный курс по гитаре.
Подарок от PrimaNota.Ru, забирай!