PrimaNota.ru - самый крупный в мире бесплатный архив песенных текстов, аккордов, табулатур и нот


John Squire - Strange Feeling - таба, видео

Регистрация Запомнить меня
Войти через:  Facebook Google Twitter Vk Yandex Mail.ru

John Squire - Strange Feeling - таба, видео

Печатать
Просмотров: 61
 Artist: John Squire                   
 Song:   Strange Feeling  
 Album:  Time Changes Everything                                            
 Tabbed By: Lee Thomas Robson  The_Axis@gmx.co.uk> 14/10/2002

 Open C Tuning

 Intro: w/slide
 e|------------0------------------------------------------0-
 c|------------0-----------------2/3-2/3--\-0---4\2-0-----0-
 g|-5\4-0--4/5---------------0------------------------1/2---
 c|---------------4-/-5---\--0------------------------------
 g|---------------4-/-5---\--------------------------------- 
 c|---------------------------------------------------------
                           G             F       Eb    C
 e|----------------------------------------------------0------
 c|-7-\-5~----------0----------------------------------0------
 g|-7-\-5~-----------------7~-------5/7-\5~------3-3-/-0------
 c|-----------0--2/4--4\2--7~-------5/7-\5~------3-3-/-0------
 g|------------------------7~--------------------3-3-/-0------
 c|------------------------7~--------------------3-3-/-0------


-- 
     
Добавлено: 20.07.2013
Другие материалы по этой песне:
  • Аккорды и текст

Страница создана 20.07.2013
http://primanota.ru/john-squire/strange-feeling-chords.htm
Привет, Гость.
Предлагаем пройти революционный курс по гитаре.
Подарок от PrimaNota.Ru, забирай!