PrimaNota.ru - самый крупный в мире бесплатный архив песенных текстов, аккордов, табулатур и нот


John Squire - Shine A Little Light - таба, видео

Регистрация Запомнить меня
Войти через:  Facebook Google Twitter Vk Yandex Mail.ru

John Squire - Shine A Little Light - таба, видео

Печатать
Просмотров: 71
 Artist: John Squire                   
 Song:   Shine A Little Light  
 Album:  Time Changes Everything                        
 Tabbed By: Lee Thomas Robson  The_Axis@gmx.co.uk> 28/10/2002
 Key: ^ = Downstroke v = Upstroke p.m = palm-mute

 Intro: 
    F          C          G
 e|-1--1-1-1-0-0--0-0-0-0-3--3-3-3-3--3^3-3-3-|
 b|-1--1-1-1-0-1^-1-1-1-0-3^-3-3-3-3^-3-3-3-3-|
 g|-2--2-2-2-0-0--0-0-0-0-0^-0-0-0-0^-0-0-0-0-|
 d|-3--3-3-3-0-2--2-2-2-0-0--0-0-0-0--0-0-0-0-|
 a|-3--3-3-3-3-3--3-3-3-0-2--2-2-2-2--2-2-2-2-| 
 e|-x--x-x-x-x------------3--3-3-3-3--3-3-3-3-|
    ^  ^ v ^ v ^  ^ v ^ v ^  ^ v ^ ^  ^ v ^ v
        
 e|-------------------------------------------------| 
 b|-----------------------8~------------------------|
 g|-10~--10\9--7-----------------5~---5-3-----------|
 d|-x----x-----x^-9\---5/9-------x----x-------5-----|
 a|-8~---8\-7--5--x--------------3~---3\2^0---x-----|
 e|---------------7\-----------0--------------3-----|
                            p.m-       p.m-   
   Part of the solo...
 e|----------------------------|
 b|-10^×8~-------8-8~-----------|
 g|---------5/9-------10-9-7---|
 d|----------------------------|
 a|----------------------------|
 e|----------------------------|
   ...just improvise the rest!

     
Добавлено: 30.09.2013
Вам также может быть интересно:
Другие материалы по этой песне:
  • Аккорды и текст

Страница создана 30.09.2013
http://primanota.ru/john-squire/shine-a-little-light-chords.htm
Привет, Гость.
Предлагаем пройти революционный курс по гитаре.
Подарок от PrimaNota.Ru, забирай!