PrimaNota.ru - самый крупный в мире бесплатный архив песенных текстов, аккордов, табулатур и нот


John Squire - Joe Louis - таба, видео

Регистрация Запомнить меня
Войти через:  Facebook Google Twitter Vk Yandex Mail.ru

John Squire - Joe Louis - таба, видео

Печатать
Просмотров: 87
Уроки эстрадного вокала в Санкт-Петербурге
Artist: John Squire                      Bass Intro - D
Song:   Joe Louis                       a|----------12---|
Album:  Time Changes Everthing          e|-10--10--------|         
Tabbed By: Lee Thomas Robson  The_Axis@gmx.co.uk> 14/10/2002

   F         Am       G            F             Am       G
e|-1~-------/5~------\3~---------|--------------/5~------\3~----------
b|-1~-------/5~------\3~---------|-----1-1------/5~------\3~------1-0-
g|-------------------------------|---2------------------------0h2-----
d|-------------------------------|-3----------------------------------
a|-------------------------------|------------------------------------ 
e|-------------------------------|------------------------------------
  Guitar 1                        Guitar 2 W/Wah

e|-3H5-3-1-1h3-1-0-0h1-|-----------/5~------\3~-----------|
b|---------------------|--1-1------/5~------\3~-----1-0---|
g|---------------------|2-----------------------0h2-------|
d|-------------------3-|----------------------------------| 
a|---------------------|----------------------------------|
e|---------------------|----------------------------------|
  Acoustic Guitar       Guitar 2 W/Wah
                                             1st ending
e|Acoustic Guitar|--------------------------|------------------------|  
b|-3-1-0-0h1-0---|--------------------------|------------------------|
g|-------------0-|:-----0----------0--------|-----0-----------------:|
d|---------------|:-----0----------0-----2--|-2-3-------------------:|
a|---------------|------x-3-2------x-3-2-3--|------------------------|
e|-3~------------|-3~---3-----1~---1--------|------3--1-3-1-3--1-3-1-|
  Guitar 1              rake       rake                  
  
 2nd ending     Before solo
e|----------| e|---------------| e|----------------------------------
b|----------| b|---------------| b|----------------------------------
g|----------| g|-Violin?-------| g|-14----14\12----------------------
d|----------| d|-10~--9~--10~--| d|--x-----x----14--12\10--10--10----
a|-3-2------| a|---------------| a|-12----12\10--x---x-----x---x-----
e|-----5^-3-| e|---------------| e|-------------12--10\8---8---8-----
  slight bend

e|------------------8------------------------------------------
b|----------------8---8---------(---3--)(---3--)(---4---)------
g|----12/14\12----------10-9-----0h10h12-0h10h12-0h9h109--7-5--
d|----x----------------------10--------------------------------
a|-x-10/12\10--------------------------------------------------
e|-------------------------------------------------------------
              
e|------------Don't-Pick------/10-8\-----------------
b|------------*-*-*----------------------6-----------
g|-5/7~--7H9/10\9p7-5-5\-----------------5h7-5~----/-
d|---------------------------------------------------
a|---------------------------------------------------
e|---------------------------------------------------

e|--------------------------------------------------------------------
b|----------------------13--------------------------------------------
g|--------------12-12h14--14-12---------------------------------------
d|------10-12/14----------------14--10h12~\--10h12~\--10h12-10h12p10~-
a|-10h12--------------------------------------------------------------
e|--------------------------------------------------------------------

e|----------------------------------------------| 
b|----------------------------------------------|
g|-----------------5----------------------------|
d|----\--------------5-----5---5-7(9)(7)p5-5-5--|
a|---------/8\7-5------7/8----------------------|
e|----------------------------------------------| 

-- 
     
Добавлено: 28.09.2013
Другие материалы по этой песне:
  • Аккорды и текст

Страница создана 28.09.2013
http://primanota.ru/john-squire/joe-louis-chords.htm
Привет, Гость.
Предлагаем пройти революционный курс по гитаре.
Подарок от PrimaNota.Ru, забирай!