PrimaNota.ru - самый крупный в мире бесплатный архив песенных текстов, аккордов, табулатур и нот


John Squire - All I Really Want - таба, видео

Регистрация Запомнить меня
Войти через:  Facebook Google Twitter Vk Yandex Mail.ru

John Squire - All I Really Want - таба, видео

Печатать
Просмотров: 78
Уроки эстрадного вокала в Санкт-Петербурге
 Artist: John Squire                   
 Song:   All I Really Want  
 Album:  Time Changes Everything                        
 Tabbed By: Lee Thomas Robson  The_Axis@gmx.co.uk> 28/10/2002
 
 Tuning ^Ö 1 step down
 
 Intro: 
 d|-15--15----12-14-14-----12---10------------
 a|--x---x-----x--x--x------x-------12p10-----
 f|-16--16----12/14-14-----12------------12---
 c|-------------------------------------------
 g|------------------------------------------- 
 d|-------------------------------------------
                                    1st ending
 d|--------------------------------|-------------------
 a|------------10--8---------------|-------------------
 f|-----7--7/9-11--9--7------------|-------------------
 c|-7/9------------------7-5^5h7-5-|-------------------
 g|--------------------------------|-7---7/10/7p5-5-5--
 d|--------------------------------|-------------------
   2nd ending
 d|-------10------- Verse Chords: (real names in brackets) 
 a|-10h12---------- G(F), D(C), C(Bb)
 f|-x--------12~---
 c|---------------- During the chorus it^Òs 
 g|-rake----------- G, D, ^ÓC,C/B, C/A, G^Ô
 d|----------------


 
     
Добавлено: 06.09.2013
Другие материалы по этой песне:
  • Аккорды и текст

Страница создана 06.09.2013
http://primanota.ru/john-squire/all-i-really-want-chords.htm
Привет, Гость.
Предлагаем пройти революционный курс по гитаре.
Подарок от PrimaNota.Ru, забирай!