PrimaNota.ru - самый крупный в мире бесплатный архив песенных текстов, аккордов, табулатур и нот


John Schlitt - Undemocratic - таба, видео

Регистрация Запомнить меня
Войти через:  Facebook Google Twitter Vk Yandex Mail.ru

John Schlitt - Undemocratic - таба, видео

Печатать
Просмотров: 82
Уроки эстрадного вокала в Санкт-Петербурге
John Schlitt
(Feat) The Jay Sekulow Band

E ---------------------------|
B ---------------12-----(12)-|
G ---------------12-----(12)-|
D ---------------------------|
A ---------------------------|
E ---------------------------|


   Main riff
E ---------------------------|
B ---------------------------|
G ---------------------------|
D ---------------------------|
A ----------7---6---5---4--3-|
E -/-0-0-0---0---0---0---0---|

E ---------------------------|
B ---------------------------|
G ---------------------------|
D ---------------------------|
A --3-2-3--------------------|
E 0--------------------------|

 /slide
(0)hold note
Добавлено: 04.06.2016
Другие материалы по этой песне:
  • Аккорды и текст

Страница создана 04.06.2016
http://primanota.ru/john-schlitt/undemocratic-chords.htm
Привет, Гость.
Предлагаем пройти революционный курс по гитаре.
Подарок от PrimaNota.Ru, забирай!